Ads

Dancing Mad (Complete) (Final Fantasy VI) Guitar Tab

Submitted: May 29, 2014 by TheDoomOfAllFires (Last updated: May 31, 2014)

5
Average: 5 (11 votes)
Download | Listen
Game: Final Fantasy VI
Composer(s): Nobuo Uematsu
Style: Arrangement, Fingerstyle
Series: Final Fantasy

AutoScroll: Slow | Medium | Fast
"Dancing Mad (Complete)" - Final Fantasy VI
Composer : Nobuo Uematsu
Arrangement : TheDoomOfAllFires
BPM : Variable
Tuning : 2-step Down C.F.A#.D#.G.C



       |--3--|  |--3--|  |--3--|  |---3--|   
       E  E  E  E  E  E  E  E  E  E   E  E   
C ||---0------------------------------------|
G ||------------0---------------------------|
D#||*-----------2---------------------------|
A#||*-----2--2-----2--2--L--2--2--0h--2--2--|
F ||------------------2--L------------------|
C ||---0--------0-----0--L------------------|


  |--3--|  |--3--|  |--3--|  |---3--|     |--3--|  |--3--|  |--3--|  |---3--|   
  E  E  E  E  E  E  E  E  E  E   E  E     E  E  E  E  E  E  E  E  E  E   E  E   
--------------------0------------------|--1------------------------------------|
--3-----------------0------------------|--1--------0---------------------------|
--2-----------------2------------------|--2--------2---------------------------|
--2--2--2-----2--2-----2--2--0h--2--2--|-----2--2-----2--2--L--2--2--0h--2--2--|
---------------------------------------|-----------------2--L------------------|
--0--------0--------0------------------|--0--------0-----0--L------------------|


  |--3--|  |--3--|  |--3--|  |---3--|     |--3--|  |--3--|  |--3--|  |---3--|   
  E  E  E  E  E  E  E  E  E  E   E  E     E  E  E  E  E  E  E  E  E  E   E  E   
---------------------------------------|--0------------------------------------|
-----------0---------------------------|-----------0---------------------------|
-----------2---------------------------|-----------2---------------------------|
-----2--2-----2--2-----2--2--0h--2--2--|-----2--2-----2--2--L--2--2--0h--2--2--|
---------------------------------------|-----------------2--L------------------|
--0--------0---------------------------|--0--------0-----0--L------------------|


  |--3--|  |--3--|  |--3--|  |---3--|     |--3--|  |--3--|  |--3--|  |---3--|   
  E  E  E  E  E  E  E  E  E  E   E  E     E  E  E  E  E  E  E  E  E  E   E  E   
--------------------0------------------|--5------------------------------------|
--3-----------------0------------------|--6--------0---------------------------|
--2-----------------2------------------|--5------------------------------------|
--2--2--2-----2--2-----2--2--0h--2--2--|-----2--2-----2--2-----2--2--0h--2--2--|
---------------------------------------|-----------------2---------------------|
--0--------0--------0------------------|--0--------0-----0---------------------|


  |--3--|  |--3--|  |--3--|  |---3--|     
  E  E  E  E  E  E  E  E  E  E   E  E     
----------------------------------------||
-----------0----------------------------||
-----------2---------------------------*||
-----2--2-----2--2-----2--2--0h--2--2--*||
----------------------------------------||
--0--------0----------------------------||


  |--3--|  |--3--|  |--3--|  |---3--|     |--3--|  |--3--|  |--3--|  |---3--|   
  E  E  E  E  E  E  E  E  E  E   E  E     E  E  E  E  E  E  E  E  E  E   E  E   
--5------------------------------------|---------------------------------------|
--6--------0---------------------------|-----------0---------------------------|
--5------------------------------------|-----------2---------------------------|
-----2--2-----2--2--L--2--2--0h--2--2--|-----2--2-----2--2-----2--2--0h--2--2--|
-----------------2--L------------------|---------------------------------------|
--0--------0-----0--L------------------|--0--------0---------------------------|


  ^                    ^        ^                               
  H        H           H        Q    Q       H        H         
--------------------|----------------0----|--3--------7--------|
-----------0--------|-----------3---------|--0-----------------|
--0--------0--------|--3--------3---------|-----------7--------|
--2--------2--------|--5--------3---------|--2--------4--------|
--2-----------------|---------------------|--------------------|
--0-----------------|--3------------------|--------------------|


            ^                                                            
                                                               |--3--|   
  H         Q     Q         H         H           H.           E  E  E   
--6--------10----12----|--/14~-----------------|------------------------|
-----------------------|--------------2--------|--3---------------------|
--7--------10----------|--------------3--------|--4---------------------|
--5---------7----------|--------------4--------|--5---------------------|
-----------------------|-----------------------|------------------------|
-----------------------|-----------------------|---------------2--2--2--|


                                    |--3--|                        
  H        H           H.           E  E  E     H        H         
--------------------|------------------------|--------------------|
-----------5--------|--3---------------------|-----------0--------|
-----------6--------|--4---------------------|-----------0--------|
-----------7--------|--5---------------------|-----------2--------|
--4-----------------|------------------------|--2-----------------|
--2-----------------|---------------3--3--3--|--0-----------------|


               |--3--|                                            
  H.           E  E  E     H        H           W                 
------------------------|--0-----------------|-------------------|
--2---------------------|--0--------3--------|--2----------------|
--3---------------------|--0--------4--------|--3----------------|
--4---------------------|-----------5--------|--4----------------|
------------------------|--------------------|-------------------|
---------------0--0--0--|--0-----------------|-------------------|


  ^                    ^                    ^                    
  H        H           H        H           Q    Q    Q    Q     
--0--------3--------|--2--------0--------|------------0----2----|
--0-----------------|--1-----------------|--4---------0---------|
--0-----------------|--2-----------------|--2---------2---------|
--5-----------------|--------------------|----------------------|
--------------------|--------------------|--2---------2---------|
--0-----------------|--0-----------------|-------2--------------|


  ^                      ^                    ^                  
  Q    Q    Q    Q       H        H           H        H         
--0-------------------|--------------------|--0-----------------|
--0-------------------|--3-----------------|--5-----------------|
--0-------------------|--4-----------------|--5-----------------|
--2-------------------|--5-----------------|--------------------|
------------2---------|-----------2--------|--------------------|
-------3---------3----|--3-----------------|--5--------3--------|


  ^                                           ^                  
  H        Q    Q       Q    Q    H           H        H         
-----------0----2----|--0------------------|--0--------3--------|
--4------------------|--0------------------|--0-----------------|
--4------------------|--0------------------|--0-----------------|
--4------------------|---------------------|--------------------|
---------------------|---------------------|--------------------|
--2--------3----5----|--3----2----0--------|--0-----------------|


  ^                                                               
  H        H           Q    Q    Q    Q       Q    Q    H         
--2--------0--------|------------0----2----|--0------------------|
--1-----------------|--4---------0---------|--0------------------|
--2-----------------|--4-------------------|--0------------------|
--------------------|----------------------|---------------------|
--------------------|--2---------2---------|---------------------|
--0-----------------|-------2--------------|--3----2----0--------|


  Q    Q    Q    Q       H        H         
--0-------------------|--------------------|
--1-------------------|--4-----------------|
--0-------------------|--2-----------------|
----------------------|--------------------|
--3----2----0---------|-----------2--------|
-----------------3----|--2-----------------|


    S  S S S S S  S S S S  S S S  S S S  4x
|-----------------------0h-3-0-2p-0---2--||
|--------0-----0h-1---0-------------4----||
|*--0h-2---0-2------2-------------------*||
|*--------------------------------------*||
|----------------------------------------||
|---0--------0--------0--------0---------||


   S S  S  S S S   S S S S  S S S  S S  S  
-----7h-8------------0---0h-2-------------|
--10------10-7-8h-10---4------4-0h-2-4p-0-|
------------------------------------------|
---7---------7----------------------------|
-----------------------2--------2---------|
------------------------------------------|


  S S  S S S  S S S S S  S S S S  S S  
--0-2h-3-0------0---------------------|
-----------1h-3---1---0h-1------------|
--------------------2------2---0h-2---|
-----------------------------4------4-|
--3--------2--------0-----------------|
-----------------------------2--------|


    S  S S S S S  S S S S S  S S S  S  S  
|------------0--------0--------0---------|
|--------0-----0h-1---0------------------|
|*--0h-2---0-2------2-----0h-4-2-4p-0h-4-|
|*----------------------2----------------|
|----------------------------------------|
|---0--------0--------0--------0---------|


  S  S S S S S  S S S S S  S S S  S  S    
-----------0--------0-------------------||
-------0-----0h-1---0--------4----------||
--0h-2---0-2------2-----0h-4-2-4p-0h-4-*||
----------------------2----------------*||
----------------------------------------||
--0--------0--------0--------0----------||


   |--3--|  |--3--|  |--3--|  |---3--|   
   E  E  E  E  E  E  E  E  E  E   E  E   
---0------------------------------------|
------------0---------------------------|
*-----------2---------------------------|
*-----2--2-----2--2--L--2--2--0h--2--2--|
------------------2--L------------------|
---0--------0-----0--L------------------|


  |--3--|  |--3--|  |--3--|  |---3--|     |--3--|  |--3--|  |--3--|  |---3--|   
  E  E  E  E  E  E  E  E  E  E   E  E     E  E  E  E  E  E  E  E  E  E   E  E   
--------------------0------------------|--1------------------------------------|
--3-----------------0------------------|--1--------0---------------------------|
--2-----------------2------------------|--2--------2---------------------------|
--2--2--2-----2--2-----2--2--0h--2--2--|-----2--2-----2--2--L--2--2--0h--2--2--|
---------------------------------------|-----------------2--L------------------|
--0--------0--------0------------------|--0--------0-----0--L------------------|


  |--3--|  |--3--|  |--3--|  |---3--|     |--3--|  |--3--|  |--3--|  |---3--|   
  E  E  E  E  E  E  E  E  E  E   E  E     E  E  E  E  E  E  E  E  E  E   E  E   
---------------------------------------|--0------------------------------------|
-----------0---------------------------|-----------0---------------------------|
-----------2---------------------------|-----------2---------------------------|
-----2--2-----2--2-----2--2--0h--2--2--|-----2--2-----2--2--L--2--2--0h--2--2--|
---------------------------------------|-----------------2--L------------------|
--0--------0---------------------------|--0--------0-----0--L------------------|


  |--3--|  |--3--|  |--3--|  |---3--|     |--3--|  |--3--|  |--3--|  |---3--|   
  E  E  E  E  E  E  E  E  E  E   E  E     E  E  E  E  E  E  E  E  E  E   E  E   
--------------------0------------------|--5------------------------------------|
--3-----------------0------------------|--6--------0---------------------------|
--2-----------------2------------------|--5------------------------------------|
--2--2--2-----2--2-----2--2--0h--2--2--|-----2--2-----2--2--L--2--2--0h--2--2--|
---------------------------------------|-----------------2--L------------------|
--0--------0--------0------------------|--0--------0-----0--L------------------|


  |--3--|  |--3--|  |--3--|  |---3--|     
  E  E  E  E  E  E  E  E  E  E   E  E     
----------------------------------------||
-----------0----------------------------||
-----------2---------------------------*||
-----2--2-----2--2-----2--2--0h--2--2--*||
----------------------------------------||
--0--------0----------------------------||


  |--3--|  |--3--|  |--3--|  |---3--|     |--3--|  |--3--|  |--3--|  |---3--|   
  E  E  E  E  E  E  E  E  E  E   E  E     E  E  E  E  E  E  E  E  E  E   E  E   
--5------------------------------------|---------------------------------------|
--6--------0---------------------------|-----------0---------------------------|
--5------------------------------------|-----------2---------------------------|
-----2--2-----2--2--L--2--2--0h--2--2--|-----2--2-----2--2-----2--2--0h--2--2--|
-----------------2--L------------------|---------------------------------------|
--0--------0-----0--L------------------|--0--------0---------------------------|


  ^                    ^        ^                               
  H        H           H        Q    Q       H        H         
--------------------|----------------0----|--3--------7--------|
-----------0--------|-----------3---------|--0-----------------|
--0--------0--------|--3--------3---------|-----------7--------|
--2--------2--------|--5--------3---------|--2--------4--------|
--2-----------------|---------------------|--------------------|
--0-----------------|--3------------------|--------------------|


            ^                                                            
                                                               |--3--|   
  H         Q     Q         H         H           H.           E  E  E   
--6--------10----12----|--/14~-----------------|------------------------|
-----------------------|--------------2--------|--3---------------------|
--7--------10----------|--------------3--------|--4---------------------|
--5---------7----------|--------------4--------|--5---------------------|
-----------------------|-----------------------|------------------------|
-----------------------|-----------------------|---------------2--2--2--|


                                    |--3--|                        
  H        H           H.           E  E  E     H        H         
--------------------|------------------------|--------------------|
-----------5--------|--3---------------------|-----------0--------|
-----------6--------|--4---------------------|-----------0--------|
-----------7--------|--5---------------------|-----------2--------|
--4-----------------|------------------------|--2-----------------|
--2-----------------|---------------3--3--3--|--0-----------------|


               |--3--|                                            
  H.           E  E  E     H        H           W                 
------------------------|--0-----------------|-------------------|
--2---------------------|--0--------3--------|--2----------------|
--3---------------------|--0--------4--------|--3----------------|
--4---------------------|-----------5--------|--4----------------|
------------------------|--------------------|-------------------|
---------------0--0--0--|--0-----------------|-------------------|


    E  E  E  E  E  E  E  E     E  E  E  E  E  E  E  E     
|---------------------------|---------------------------||
|---1-----1--0--1-----1--0--|--1-----1--0--1--0--4------||
|*--------------------------|--------------------------*||
|*--3-----3--2--3-----3--2--|--3-----3--2--3--2--1-----*||
|---------------------------|---------------------------||
|---1-----1-----1-----1-----|--1-----1-----1------------||


   E  S S E  S S E  S S E  S S    E  S S E  S S E  E  E  E     
------1-------------1----------|-----1-------------1--2------||
---1------1--0---1------1--0---|--1------1--0---1--0---------||
*------------------------------|----------------------------*||
*--3------3--2---3------3--2---|--3------3--2---3--2--1-----*||
-------------------------------|-----------------------------||
---1------1------1------1------|--1------1------1--0---------||


   E  Q    E  E  Q    E     E  E  Q    E.  E.  E       E  Q    E  E.  E.  E   
---1---------------------|--1----------------------||--4---------------------|
---1----------1----------|--1-----1----0-----------||--4----------4----------|
*--1----------1----------|--1-----1----1----------*||--4----------4----------|
*------------------------|------------------------*||------------------------|
-------------------------|-------------------------||------------------------|
---1--1----1--1--1----1--|--1--1--1----0---0---0---||--4--4----4--4---4---4--|


  E  E  Q    E.  E.  E     E  Q    E  E.  E.  E     E  E  Q    H         
--4---------------------|--4---------------------|--4-------------------|
--4-----4----3----------|--4----------4----------|--4-----4----3--------|
--4-----4----3----------|--4----------4----------|--4-----4----3--------|
-------------3---3---3--|------------------------|-------------3--------|
------------------------|------------------------|----------------------|
--4--4--4---------------|--4--4----4--4---4---4--|--4--4--4-------------|


    E  S S E  S S E  S S E  S S    E  S S E  S S E  E  E  E   4x
|------1------1------1------1---|-----1------1------1--2------||
|---1------1--0---1------1--0---|--1------1--0---1--0---------||
|*------------------------------|----------------------------*||
|*--3------3--2---3------3--2---|--3------3--2---3--2--1-----*||
|-------------------------------|-----------------------------||
|---1------1------1------1------|--1------1------1--0---------||


   E  Q    E  E  Q    E     E  E  Q    E.  E.  E       E  Q    E  E.  E.  E   
---1---------------------|--1----------------------||--4---------------------|
---1----------1----------|--1-----1----0-----------||--4----------4----------|
*--1----------1----------|--1-----1----1----------*||--4----------4----------|
*------------------------|------------------------*||------------------------|
-------------------------|-------------------------||------------------------|
---1--1----1--1--1----1--|--1--1--1----0---0---0---||--4--4----4--4---4---4--|


  E  E  Q    E.  E.  E     E  Q    E  E.  E.  E     E  E  Q    H         
--4---------------------|--4---------------------|--4-------------------|
--4-----4----3----------|--4----------4----------|--4-----4----3--------|
--4-----4----3----------|--4----------4----------|--4-----4----3--------|
-------------3---3---3--|------------------------|-------------3--------|
------------------------|------------------------|----------------------|
--4--4--4---------------|--4--4----4--4---4---4--|--4--4--4-------------|


   |----3---|   |----3---|   |----3---|   |----3---|   
   E    E   E   E   E    E   E   E    E   E    E   E   
--10h--12--13------10h--13------10h--12-----------12--|
---------------12-----------13-----------10h--13------|
-----------------------------9------------------------|
------------------------------------------------------|
---8--------------------------------------------------|
------------------------------------------------------|


   |----3---|   |---3---|   |----3---|   |----3---|   
   E    E   E   E   E   E   E    E   E   E   E    E   
-----------10----------10----------------------------|
--12h--13----------12------10h--12--13------10h--13--|
---------------13-----------------------11-----------|
-----------------------------------------------------|
-----------------------------------------------------|
--10------------------------8------------------------|


                                       ^                        
  S S S S   S S  S S S S S S S S E     Q    E  E  E  S S E  E   
--7-----7s-12---10---8-------5---8--|--7-------------0---------|
------9------------------9----------|--5----0--1--3----3-1--0--|
----9---------9----9---9---9---5----|--7-----------------------|
------------------------------------|--------------------------|
-----------------------------0------|--7-----------------------|
--7------------------8--------------|--------------------------|


  ^                                                    
  Q    E  E  E  S S E  E     E  E  E  E  E  S S E  E   
--------------------------|-----5--2--3--5--7-5-------|
--1-------0--1--3-1-0-----|--0------------------8--7--|
--2----2---------------2--|---------------------------|
--------------------------|--------2-----7------------|
--0----2-----3------2-----|---------------------------|
--------------------------|--0------------------7-----|


  ^     ^                                  ^             
              |--3--|  |---3--|                          
  E  E  Q     E  E  E  E   E  E     E  E   H.            
--------9~----L--6---------------|--------11------------|
--7-----7-----L-----7------------|--0------7------------|
--6--------------------6s--3-----|--4-------------------|
--8---------------------------4--|--4-------------------|
--------9-----L------------------|--2-------------------|
--6------------------------------|---------7------------|


   S  S  S S   S  S  S  S  E.  S  S S   S  S  
--12-----------------------------------------|
-----12-10--------------------------------11-|
-----------9h-10----12-10p-9--------8s-10----|
---9-------------10------------7h-8----------|
---------------------------------------------|
---------------------------------------------|


   S S  S S   S S S  S S S  S S  S  S  S  S    E    E   E   E   E   E   E   E   
------------------8----8--------------11p-9-|--8s--13--11----------------------|
--10------------8---11---8----8h-9-11-------|--------------11------14--13------|
-----9p-7-9h-10------------10---------------|------------------13----------12--|
--------------------------------------------|------------------11--------------|
--------------------------------------------|--------------------------10------|
--------------------------------------------|----------------------------------|


   S  S   S  S S S S S  S S S S  S S S S    E   E   E   E   Q    Q     
--13---------------4-------------------7-|--8--13--11--13--14---------|
-----13p-11----7-----7p-6------------7---|--6-------7--11-------------|
------------10---6--------4--------9-----|----------------------------|
--10-----------6--------------8--9-------|--0-------------------------|
----------------------------8-9-11---6---|-------------10---9---------|
-----------------------------------------|------8---7-----------------|


   Q.      H         E     W                     E  E  E  E  E  E  E  E   
--16------14------------|-------------------||------------------0--1--3--|
--14------12------------|-------------------||---1--------1--3-----------|
------------------------|-------------------||*-----2--3-----------------|
------------------------|-------------------||*--3-----------------------|
------------------------|-------------------||---------------------------|
--12------10---------L--|--1----------------||---------------------------|


  Q.     E  E  E  E  E      E   E   E   E   E   E   E  E   
--5------0--------5--6--|---8--13--10--13-----------------|
------------6--8--------|--10--------------13--11--10--8--|
--5---------------------|---------------------------------|
--3---------------------|---------------------------------|
------------------------|---------------------------------|
------------------------|---------------------------------|


   E  E   E   E   E   E   Q       Q.     E  E  E  Q     
------8------10---8------------|--3------3--5--3--1----|
--10-----11----------11--10----|--1--------------------|
--10-------------10------------|------------5----------|
-------------------------10----|-----------------------|
-------------------------------|--3---------3-----3----|
-------------------------------|-----------------------|


  Q.     E  E  E   E  E     E  E  E  E  E  E  E  E     E  E   E  E  H         
--0----------------------|--0--3--1--3--0-----------|--0---------------------|
--1------------0h--1--3--|-----------------3--1--3--|-----1h--3--0--1--------|
---------0--2------------|--------------------------|---------------0--------|
-------------------------|--------------------------|------------------------|
--3----------------------|--3-----------3-----------|--3------------3--------|
-------------------------|--------------------------|------------------------|


  E  E  E  E  E  E  E  E     E  E  E  E  E  E  E  E   
--5-----0-----------0-----|--6-----0-----------0-----|
-----6-----6-----6-----6--|-----6-----6-----6-----6--|
--------------5-----------|--------------7-----------|
--3-----------------------|--------------0-----------|
--------------------------|--------7-----------7-----|
--------------------------|--------------------------|


                                                      ^         ^           
  E  E  E  E  E  E  E  E      E  E  E  E  H           Q.     E  E  E  Q     
--8-----0-----------0-----|--10-----0--------------|--5------5--6--5--3----|
-----6-----6-----6-----6--|------6-----6-----------|-----------------------|
--------------5-----------|---------------7--------|--5---------7-----3----|
--------------------------|------------------------|--3--------------------|
--8-----------------------|------------------------|-----------------------|
--------------------------|------------------------|-----------------------|


                           ^         ^                                 
  Q.     E  E  E  E  E     Q.     E  E  E  Q       Q.     E  H         
--5------3-----3--5--6--|--5------5--6--5--3----|--5------3--1--------|
------------6-----------|-----------------------|------------1--------|
--5---------------------|--5---------7-----3----|--5---------2--------|
--3---------------------|--3--------------------|--3------------------|
------------------------|-----------------------|---------------------|
------------------------|-----------------------|---------------------|


  E  E  E  E  E  E  E  E     E  E  E  E  E  E  E  E   
--5-----0-----------0-----|--5-----0-----6-----0-----|
-----6-----6-----6-----6--|-----6-----6-----6--------|
--------0-----------------|--5-----------7-----5-----|
--3-----------7-----8-----|--------7--------------8--|
--------------------------|--------------------------|
--------------------------|--------------------------|


  E  E  E  E  E  E  E  E     E  E  E  E  E  E  E  E   
--5-----0-----------0-----|--5-----0-----6-----0-----|
-----6-----6-----6-----6--|-----6-----6-----6-----6--|
--5-----------0-----------|--------------------------|
--------7-----------8-----|--7-----------0-----------|
--------------------------|--------8-----------7-----|
--------------------------|--------------------------|


  E  E  E  E  E  E  E  E     E  E  E  E  E  E  E  E   
--5-----0-----------0-----|--6-----0-----------0-----|
-----6-----6-----6-----6--|-----6-----6-----6-----6--|
--------------5-----------|--------------7-----------|
--3-----------------------|--------------0-----------|
--------------------------|--------7-----------7-----|
--------------------------|--------------------------|


  E  E  E  E  E  E  E  E      E   E  E    E  H         
--8-----0-----------0-----|--10-----------------------|
-----6-----6-----6-----6--|---------------------------|
--------------5-----------|------10--9h--10--7--------|
--------------------------|---------------------------|
--8-----------------------|---------------------------|
--------------------------|---------------------------|


  E  E  E  E  E  E  E  E     E  E  E  E  E  E  E  E   
--4-----0-----------0-----|--4-----0-----6-----0-----|
-----6-----6-----6-----6--|-----6-----6-----6--------|
--------0-----------------|--5-----------6-----5--3--|
--3-----------6-----8-----|--------6-----------------|
--------------------------|--------------------------|
--------------------------|--------------------------|


  E  E  E  E  E  E  E  E     E  E  E  E  E  E  E  E   
--4-----0-----6-----0-----|--8-----0-----6-----0-----|
-----6-----6-----6-----6--|-----6-----6-----6-----6--|
--5-----------------------|--------------------------|
--------6-----5-----8-----|--6-----3-----0-----------|
--------------------------|--------------------7-----|
--------------------------|--------------------------|


  E  E  E  E  E  E  E  E     E  E  E  E  E  E  E  E   
--4-----0-----------0-----|--6-----0-----------0-----|
-----6-----6-----6-----6--|-----6-----6-----6-----6--|
--------------5-----------|--------------7-----------|
--3-----------------------|--------------0-----------|
--------------------------|--------7-----------7-----|
--------------------------|--------------------------|


  E  E  E  E  E  E  E  E     E   E  E   E   H         
--8-----0-----------0-----|--9-----------------------|
-----6-----6-----6-----6--|--------------------------|
--------------5-----------|-----10--9--10------------|
--------------------------|----------------11--------|
--8-----------------------|--8-----------------------|
--------------------------|--------------------------|


  E  E  E  E  E  E  E  E     E  E  E  E  E  E  E  E     Q    E  E  E  E  E  E   
--------------------------|--------------------------|-------------------------|
--------------------------|--------------------------|--4----2--0--------------|
--1-----------3--0--1--3--|--5-----------6-----5--6--|-------------3--1--0-----|
-----3--2--3--------------|-----6--5--6-----8--------|--1-------------------3--|
--------------------------|--------------------------|-------------------------|
--1-----------3-----------|--4-----------6-----------|-------------------------|


  E  E  E  E  Q    E   E     E  E  E  E  E  E  E  E   
--------------0-----------|--------------------0-----|
--------4----------4p--2--|--0-----------------------|
--------------------------|-----3--1-----------------|
--1-----------------------|-----------4--2-----------|
--------------4-----------|--------------------2-----|
--------------------------|--------------------------|


  |--3--|  |--3--|  |--3--|  |--3--|     |--3--|  |--3--|  |--3--|  |--3--|   
  E  E  E  E  E  E  E  E  E  E  E  E     E  E  E  E  E  E  E  E  E  E  E  E   
--------------------------------------|--------------------------------------|
--------2--------2--------2--------2--|--------3--------3--------3--------3--|
-----3--------3--------3--------3-----|-----4--------4--------4--------4-----|
--4--------2--------0-----------------|-----------------------------0--------|
-----------------------------4--------|--2--------2--------4-----------------|
--2-----------------------------------|--------------------------------------|


  |--3--|  |--3--|  |--3--|  |--3--|     |--3--|  |--3--|  |--3--|  |--3--|   
  E  E  E  E  E  E  E  E  E  E  E  E     E  E  E  E  E  E  E  E  E  E  E  E   
--------------------------------------|--------------------------------------|
--------0--------0--------0--------0--|--------------------------------------|
-----1--------1--------4--------4-----|--------6--------6--------6--------2--|
--2--------2--------4--------6--------|-----7--------7--------7--------2-----|
--------------------------------------|--------------------------------------|
--------------------------------------|--5--------0--------5--------3--------|


  |--3--|  |--3--|  |--3--|  |--3--|     |--3--|  |--3--|  |--3--|        
  E  E  E  E  E  E  E  E  E  E  E  E     E  E  E  E  E  E  E  E  E  Q     
--------------------------------------|----------------------------------|
--------3--------3--------3--------3--|----------------------------------|
-----2--------2--------2--------2-----|--------4--------4--------4-------|
--4--------2--------0-----------------|-----5--------5--------5----------|
-----------------------------3--------|--2-----------------5--------8----|
--2-----------------------------------|-----------3----------------------|


  E  E  E  E   E  E  E  E     E  E  E  E  E  E  E  E   
---------------------------|--------------------0-----|
--2------------------------|-----------2--3--------2--|
------------------------1--|--2--3--4--------4--------|
--------1--3h--4--3--4-----|--------2-----0-----4-----|
--4--4---------------------|--------------------------|
---------------------------|--------------------------|


  E  E  E   E  E  E  E  E     E  E   E  E  E  E  E  E   
-----7--5h--7--------0-----|--2---------2--0--------0--|
---------------8--7-----8--|-----2h--3--------1--2-----|
--7------------------------|---------------------------|
---------------------------|--0------------2-----------|
---------------------------|---------------------------|
--7------------9-----------|---------------------------|


  E  E  E  E  E  E  E   E     E  E  E  E  E  E  E  E   
--------3--2--------3p--2--|--------------------------|
--3--0--------2------------|--0-----------0-----2-----|
-----------------3---------|--------3-----------3-----|
---------------------------|-----4-----4-----4-----4--|
--2------------------------|--2-----------2-----------|
--------------2------------|--------2-----------------|


  E  E  E  E  E  E  Q       E  E  E   E  E  E  E   E   
-------------------------|-----7--6h--7-----0---------|
--3-----2-----3-----4----|--0------------7------------|
--4-----3-----4-----4----|---------------------7p--6--|
-----4-----4-----4-------|----------------------------|
--2-----------2----------|--7------------9------------|
--------2----------------|----------------------------|


  E  E  E   E  E  E  E  E     Q    Q    Q    Q       W                 
---------------0--------0--|-----------------2----|-------------------|
-----8--7h--8--------------|-------3----2---------|-------------------|
--4---------------7--6-----|--4---------3---------|--4----------------|
--5------------7-----------|--4-------------------|--4----------------|
---------------------------|----------------------|--2----------------|
---------------------------|--3---------2---------|-------------------|


   ^                                                                   
                       |---3---|   |---3---|   |---3---|   |---3---|   
   W                   E   E   E   E   E   E   E   E   E   E   E   E   
--11----------------|-------------------------------------------------|
--10----------------|---------10----------10----------10----------10--|
--11----------------|-----11----------11----------11----------11------|
--------------------|-------------------------10----------13----------|
---9----------------|--9----------12----------------------------------|
--------------------|-------------------------------------------------|


                        ^         ^                 
   W                    H         W                 
--------------------|--11--------12----------------|
--------------------|--10--------11----------------|
--11----------------|--11--------12----------------|
--------------------|------------------------------|
--------------------|---9--------10----------------|
--------------------|------------------------------|


   |---3---|   |---3---|   |---3---|   |---3---|                        
   E   E   E   E   E   E   E   E   E   E   E   E      W                 
--------------------------------------------------|--------------------|
----------11----------11----------11----------11--|--------------------|
------12----------12----------12----------12------|--12----------------|
--------------------------11----------14----------|--------------------|
--10----------13----------------------------------|--------------------|
--------------------------------------------------|--------------------|


   ^         ^                    ^                    ^                   
   H         W                    W                    W                   
--12--------13----------------|--13----------------|--12-----------------||
--11--------12----------------|--13----------------|---8-----------------||
--12--------13----------------|--12----------------|--------------------*||
------------------------------|--10----------------|--------------------*||
--10--------11----------------|--------------------|---------------------||
------------------------------|--------------------|---8-----------------||


   ^                     ^                                     
   H        H            W                   W                 
--13-----------------|--13----------------|-------------------|
--11--------8--------|--10----------------|-------------------|
---------------------|--------------------|-------------------|
---------------------|--------------------|-------------------|
---8-----------------|---8----------------|-------------------|
---------------------|--------------------|--1----------------|


                                          ^                   ^                 
  W                   W                   W                   W                 
-------------------|-------------------|-------------------|-------------------|
-------------------|-------------------|-------------------|-------------------|
-------------------|-------------------|-------------------|--4----------------|
-------------------|-------------------|--4----------------|--4----------------|
-------------------|--4----------------|--4----------------|--4----------------|
--4----------------|--4----------------|--4----------------|--4----------------|


  ^                   ^                   ^                      
  W                   W                   Q    W                 
-------------------|--5----------------|--4----3----------------|
--5----------------|--5----------------|--5----5----------------|
--4----------------|--4----------------|--5----5----------------|
--4----------------|--4----------------|------------------------|
--4----------------|--4----------------|------------------------|
--4----------------|--4----------------|--5----5----------------|


  ^      ^                                                 
  Q.     H.           E       E  S E  S E  S E  S E  E   4x
--4------3---------------||------------------------------||
--5------5---------------||------------------------------||
--5------5---------------||*-----0-1--0----0-1--0----0--*||
-------------------------||*--3---------3---------3-----*||
-------------------------||------------------------------||
--5------5---------------||------------------------------||


   E  E  E  E  E  S E  S E     E  S E  E  E  S S  S S S  
----------------------------|---------------------------|
------1--1--1--1----4--2-0--|--1--2-4--2--1--1-4p-2-1-0-|
*--------1--0---------------|---------------------------|
*--3-----------3--3----3----|--3----3-----3-------------|
----------------------------|---------------------------|
----------------------------|---------------------------|


  E  E  E  E  E  S E  S  E     E  S E  E  E  S E  Q       
-------------------4--3p-0--|-------4--3-------0--------||
-----6--6--6--6--6----------|--6--6-------6--6----6-----||
-----6--6--6--6-------------|--6-----------------------*||
----------------------------|--------------------------*||
--4-----4-----4----4--------|--4----4-----4-------4-----||
----------------------------|---------------------------||


  E.  S S  E  S E  E  E  E     E  S E  S E  S E  S E  E   
--8-------------6--6-----0--|--1-------------------------|
------8-9-----9-------9-----|------------0---------------|
--9-------10----------------|-----0-1--3----3-1--0----0--|
----------------------------|--3-------------------3-----|
----------------6-----7-----|----------------------------|
--8-----9-------------------|----------------------------|


  E  S E  S E  S E  S E  E     E.  S S  E  S E  E  E  E   
----------------------------|--8-------------6--6-----0--|
------------0---------------|------8-9-----9-------9-----|
-----0-1--3----3-1--0----0--|--9-------10----------------|
--3-------------------3-----|----------------------------|
----------------------------|----------------6-----7-----|
----------------------------|--8-----9-------------------|


    E  S E  S E  S E  S E  E        E  E  E  E  E  S E  S E   
|------------------------------||----------------------------|
|------------------------------||------1--1--1--1----4--2-0--|
|*-----0-1--0----0-1--0----0--*||*--------1--0---------------|
|*--3---------3---------3-----*||*--3-----------3--3----3----|
|------------------------------||----------------------------|
|------------------------------||----------------------------|


  E  S E  E  E  S S  S S S    E  E  E  E  E  S E  S  E   
---------------------------|-------------------4--3p-0--|
--1--2-4--2--1--1-4p-2-1-0-|-----6--6--6--6--6----------|
---------------------------|-----6--6--6--6-------------|
--3----3-----3-------------|----------------------------|
---------------------------|--4-----4-----4----4--------|
---------------------------|----------------------------|


  E  S E  E  E  S E  Q         E.  S S  E  S E  E  E  E   
-------4--3-------0--------||--8-------------6--6-----0--|
--6--6-------6--6----6-----||------8-9-----9-------9-----|
--6-----------------------*||--9-------10----------------|
--------------------------*||----------------------------|
--4----4-----4-------4-----||----------------6-----7-----|
---------------------------||--8-----9-------------------|


  E  S E  S E  S E  S E  E     E  S E  S E  S E  S E  E   
--1-------------------------|----------------------------|
------------0---------------|------------0---------------|
-----0-1--3----3-1--0----0--|-----0-1--3----3-1--0----0--|
--3-------------------3-----|--3-------------------3-----|
----------------------------|----------------------------|
----------------------------|----------------------------|


  E.  S S  E  S E  E  E  E       E  S E  S E  S E  S E  E     
--8-------------6--6-----0--||------------------------------||
------8-9-----9-------9-----||------------------------------||
--9-------10----------------||*-----0-1--0----0-1--0----0--*||
----------------------------||*--3---------3---------3-----*||
----------------6-----7-----||------------------------------||
--8-----9-------------------||------------------------------||


   S S S S S S S S S  S  S  S  S  S E   
---7-----5--------------------10----0--|
-----7-----5---8-----------11----11----|
*------6-----4---7------10-------------|
*------------------7s-9----------------|
---------------------------------------|
---0-----0-----0-----------------------|


  S S S S S S S S S S  S  S  S  S  S  S      S S S S S S S S S S  S  S  S  E.   
--7-----5----------------------10--------||--7-----5----------------------10---|
----7-----5---8-------------11----11-----||----7-----5---8-------------11------|
------6-----4---7--------10----------10-*||------6-----4---7--------10---------|
------------------7-9-10----------------*||------------------7-9-10------------|
-----------------------------------------||------------------------------------|
--0-----0-----0--------0-----------------||--0-----0-----0--------0------------|


  S S S S S S S S S S S S S S E       S S S S S S S S S  S  S  S  S  S E   
---------------------------------||---7-----5--------------------10----0--|
--1---1---1-------1-------2---1--||-----7-----5---8-----------11----11----|
------0---1---3-------1---3------||*------6-----4---7------10-------------|
--3------------------------------||*------------------7s-9----------------|
---------------------------------||---------------------------------------|
---------------------------------||---0-----0-----0-----------------------|


  S S S S S S S S S S  S  S  S  S  S  S      S S S S S S S S S S  S  S  S  E.   
--7-----5----------------------10--------||--7-----5----------------------10---|
----7-----5---8-------------11----11-----||----7-----5---8-------------11------|
------6-----4---7--------10----------10-*||------6-----4---7--------10---------|
------------------7-9-10----------------*||------------------7-9-10------------|
-----------------------------------------||------------------------------------|
--0-----0-----0--------0-----------------||--0-----0-----0--------0------------|


  E.  S S  E  S E  E  E  E       E  S E  S E  S E  S E  E     
--8-------------6--6-----0--||------------------------------||
------8-9-----9-------9-----||------------------------------||
--9-------10----------------||*-----0-1--0----0-1--0----0--*||
----------------------------||*--3---------3---------3-----*||
----------------6-----7-----||------------------------------||
--8-----9-------------------||------------------------------||


  E.  S S  E  S E  E  E  E     E  S E  S E  H         
--8-------------6--6-----0--|-----3-4--6-7-----------|
------8-9-----9-------9-----|--6---------------------|
--9-------10----------------|-----0-1--3-4-----------|
----------------------------|--3---------------------|
----------------6-----7-----|------------------------|
--8-----9-------------------|------------------------|


                                       ^                   
  E  S  E   S  E  Q    H.              H.           E  E   
--7--8-10--11-13--------------------|--1---------------1--|
------------------------------------|--1------------------|
--4--5--7---8-10--------------------|--1------------------|
------------------------------------|--3------------------|
------------------------------------|--3------------------|
------------------------------------|--1------------1-----|


  ^                       ^                              ^         
  Q.     E  Q.     S S    H.           E  E     H        H         
--1----------------1-3-|--4---------------4--|--4--------2--------|
--1---------4----------|--4---------------4--|--2-----------------|
--3---------3----------|--6------------------|-----------3--------|
--1------1-------------|---------------------|--4--------4--------|
-----------------------|---------------------|--------------------|
-----------------------|--4------------------|--------------------|


  ^                                                  ^                      
  Q.     E  E  E  E   E     Q    Q    E  E  E  E     Q.     E  E  E  E  E   
--2------2--1------------|------------------------|------------------------|
--4------------0--1s--4--|--4----1----2-----------|--2------2--1-----------|
------------2------------|--3----3----3-----3--1--|--3---------------0--3--|
--1---------3------------|---------------3--------|---------------4--------|
-------------------------|--1---------1-----------|------------3-----------|
-------------------------|------------------------|--3---------------------|


  Q    Q    E  E  E  E     H        Q    Q       W                 
------------------------|---------------------|-------------------|
---------------------1--|---------------------|-------------------|
--3----0----1-----1-----|--5--------3----1----|--1----------------|
--3---------3--3--------|--3------------------|--3----------------|
------------------------|--4------------------|--3----------------|
--1---------1-----------|---------------------|-------------------|


                                                         |---3--|   
  H        H           H.           Q       H.           E   E  E   
--------------------|--1-----------------|--0-------------------0--|
--------------------|--1-----------------|--1------------1h--3-----|
--0-----------------|--0-----------------|--0----------------------|
--3--------2--------|--------------------|-------------------------|
--3-----------------|--3------------3----|--3----------------------|
--------------------|--------------------|-------------------------|


                 ^                                                            
                                                           |--3--|  |--3--|   
  Q.     E  Q    E  E     Q.     E  Q.     S S    H        E  E  E  E  E  E   
--1--------------1--1--|--1----------------1-3-|--4-----------------------4--|
--1--------------1-----|------------4----------|--4--------------------4-----|
------------1----------|--3---------0----------|--5--------------5-----------|
--3------3-------3-----|--1------1-------------|--------------6-----6--------|
-----------------------|-----------------------|-----------6-----------------|
-----------------------|-----------------------|--4--------------------------|


  ^                     ^                                                
  H        Q    Q       Q.     E  E  E  E   E     Q    Q    E  E  E  E   
--4--------2---------|--2------2--1------------|------------------------|
--4--------2---------|--1------------0--1s--4--|--4----1----2-----------|
--6------------------|--3----------------------|--3----3----------3--1--|
--4--------4----4----|--1---------3------------|---------------3--------|
---------------------|-------------------------|--1---------1-----------|
---------------------|-------------------------|------------------------|


  Q.     E  E  E  E  E     Q    Q    E  E  E  E     H        Q    Q     
------------------------|------------------------|---------------------|
--2------2--1-----------|---------------------1--|---------------------|
--3---------0-----0--3--|--3----0----1-----1-----|--5--------3----1----|
------------2--4--------|-------2-------3--------|--3------------------|
------------3-----------|--3---------3-----------|--4------------------|
--3---------------------|--1---------------------|---------------------|


                                                         ^                  
  E  E  E  E  E  Q.        E  E  E  E  E  E  S S  S S    Q    H.            
------------------------|---------------------------0-|--1-----------------|
------------------------|----------------------1h-3---|--1-----------------|
--1---------------------|--0-----------------3--------|--3-----------------|
--3---------------------|--3-----------2--------------|--3-----------------|
--3--3-----3--3--3------|--3--3-----3--3--L-----------|--1----1------------|
------------------------|-----------------------------|--------------------|


  ^                                                                           
  W                   E  S E  S E  S E  S E  E     E  S E  S E  S E  S E  E   
--0----------------|--1-------------------------|----------------------------|
--1----------------|----------------------------|----------------------------|
--3----------------|-----0-1--0----0-1--0----0--|-----0-1--0----0-1--0----0--|
--3----------------|--3---------3---------3-----|--3---------3---------3-----|
--1----------------|----------------------------|----------------------------|
-------------------|----------------------------|----------------------------|


  E  S E  S E  S E  S E  E     E  S E  S E  S E  S E  E   
----------------------------|----------------------------|
----------------------------|----------------------------|
-----0-1--0----0-1--0----0--|-----0-1--0----0-1--0----0--|
--3---------3---------3-----|--3---------3---------3-----|
----------------------------|----------------------------|
----------------------------|----------------------------|


    E  E  E  E  E  S E  S E     E  S E  E  E  S S  S S S  
|----------------------------|---------------------------|
|------1--1--1--1----4--2-0--|--1--2-4--2--1--1-4p-2-1-0-|
|*--------1--0---------------|---------------------------|
|*--3-----------3--3----3----|--3----3-----3-------------|
|----------------------------|---------------------------|
|----------------------------|---------------------------|


  E  E  E  E  E  S E  S  E     E  S E  E  E  S E  Q       
-------------------4--3p-0--|-------4--3-------0--------||
-----6--6--6--6--6----------|--6--6-------6--6----6-----||
-----6--6--6--6-------------|--6-----------------------*||
----------------------------|--------------------------*||
--4-----4-----4----4--------|--4----4-----4-------4-----||
----------------------------|---------------------------||


  E.  S S  E  S E  E  E  E     E  S E  S E  S E  S E  E   
--8-------------6--6-----0--|--1-------------------------|
------8-9-----9-------9-----|------------0---------------|
--9-------10----------------|-----0-1--3----3-1--0----0--|
----------------------------|--3-------------------3-----|
----------------6-----7-----|----------------------------|
--8-----9-------------------|----------------------------|


  E  S E  S E  S E  S E  E     E.  S S  E  S E  E  E  E   
----------------------------|--8-------------6--6-----0--|
------------0---------------|------8-9-----9-------9-----|
-----0-1--3----3-1--0----0--|--9-------10----------------|
--3-------------------3-----|----------------------------|
----------------------------|----------------6-----7-----|
----------------------------|--8-----9-------------------|


    E  S E  S E  S E  S E  E        E  E  E  E  E  S E  S E   
|------------------------------||----------------------------|
|------------------------------||------1--1--1--1----4--2-0--|
|*-----0-1--0----0-1--0----0--*||*--------1--0---------------|
|*--3---------3---------3-----*||*--3-----------3--3----3----|
|------------------------------||----------------------------|
|------------------------------||----------------------------|


  E  S E  E  E  S S  S S S    E  E  E  E  E  S E  S  E   
---------------------------|-------------------4--3p-0--|
--1--2-4--2--1--1-4p-2-1-0-|-----6--6--6--6--6----------|
---------------------------|-----6--6--6--6-------------|
--3----3-----3-------------|----------------------------|
---------------------------|--4-----4-----4----4--------|
---------------------------|----------------------------|


  E  S E  E  E  S E  Q         E.  S S  E  S E  E  E  E   
-------4--3-------0--------||--8-------------6--6-----0--|
--6--6-------6--6----6-----||------8-9-----9-------9-----|
--6-----------------------*||--9-------10----------------|
--------------------------*||----------------------------|
--4----4-----4-------4-----||----------------6-----7-----|
---------------------------||--8-----9-------------------|


  E  S E  S E  S E  S E  E     E  S E  S E  S E  S E  E   
--1-------------------------|----------------------------|
------------0---------------|------------0---------------|
-----0-1--3----3-1--0----0--|-----0-1--3----3-1--0----0--|
--3-------------------3-----|--3-------------------3-----|
----------------------------|----------------------------|
----------------------------|----------------------------|


  E.  S S  E  S E  E  E  E       E  S E  S E  S E  S E  E     
--8-------------6--6-----0--||------------------------------||
------8-9-----9-------9-----||------------------------------||
--9-------10----------------||*-----0-1--0----0-1--0----0--*||
----------------------------||*--3---------3---------3-----*||
----------------6-----7-----||------------------------------||
--8-----9-------------------||------------------------------||


   S S S S S S S S S  S  S  S  S  S E   
---7-----5--------------------10----0--|
-----7-----5---8-----------11----11----|
*------6-----4---7------10-------------|
*------------------7s-9----------------|
---------------------------------------|
---0-----0-----0-----------------------|


  S S S S S S S S S S  S  S  S  S  S  S      S S S S S S S S S S  S  S  S  E.   
--7-----5----------------------10--------||--7-----5----------------------10---|
----7-----5---8-------------11----11-----||----7-----5---8-------------11------|
------6-----4---7--------10----------10-*||------6-----4---7--------10---------|
------------------7-9-10----------------*||------------------7-9-10------------|
-----------------------------------------||------------------------------------|
--0-----0-----0--------0-----------------||--0-----0-----0--------0------------|


  S S S S S S S S S S S S S S E       S S S S S S S S S  S  S  S  S  S E   
---------------------------------||---7-----5--------------------10----0--|
--1---1---1-------1-------2---1--||-----7-----5---8-----------11----11----|
------0---1---3-------1---3------||*------6-----4---7------10-------------|
--3------------------------------||*------------------7s-9----------------|
---------------------------------||---------------------------------------|
---------------------------------||---0-----0-----0-----------------------|


  S S S S S S S S S S  S  S  S  S  S  S      S S S S S S S S S S  S  S  S  E.   
--7-----5----------------------10--------||--7-----5----------------------10---|
----7-----5---8-------------11----11-----||----7-----5---8-------------11------|
------6-----4---7--------10----------10-*||------6-----4---7--------10---------|
------------------7-9-10----------------*||------------------7-9-10------------|
-----------------------------------------||------------------------------------|
--0-----0-----0--------0-----------------||--0-----0-----0--------0------------|


  E.  S S  E  S E  E  E  E       E  S E  S E  S E  S E  E     
--8-------------6--6-----0--||------------------------------||
------8-9-----9-------9-----||------------------------------||
--9-------10----------------||*-----0-1--0----0-1--0----0--*||
----------------------------||*--3---------3---------3-----*||
----------------6-----7-----||------------------------------||
--8-----9-------------------||------------------------------||


  E.  S S  E  S E  E  E  E     E  S E  S E  H         
--8-------------6--6-----0--|-----3-4--6-7-----------|
------8-9-----9-------9-----|--6---------------------|
--9-------10----------------|-----0-1--3-4-----------|
----------------------------|--3---------------------|
----------------6-----7-----|------------------------|
--8-----9-------------------|------------------------|


                                       ^                   
  E  S  E   S  E  Q    H.              H.           E  E   
--7--8-10--11-13--------------------|--1---------------1--|
------------------------------------|--1------------------|
--4--5--7---8-10--------------------|--1------------------|
------------------------------------|--3------------------|
------------------------------------|--3------------------|
------------------------------------|--1------------1-----|


  ^                       ^                              ^         
  Q.     E  Q.     S S    H.           E  E     H        H         
--1----------------1-3-|--4---------------4--|--4--------2--------|
--1---------4----------|--4---------------4--|--2-----------------|
--3---------3----------|--6------------------|-----------3--------|
--1------1-------------|---------------------|--4--------4--------|
-----------------------|---------------------|--------------------|
-----------------------|--4------------------|--------------------|


  ^                                                  ^                      
  Q.     E  E  E  E   E     Q    Q    E  E  E  E     Q.     E  E  E  E  E   
--2------2--1------------|------------------------|------------------------|
--4------------0--1s--4--|--4----1----2-----------|--2------2--1-----------|
------------2------------|--3----3----3-----3--1--|--3---------------0--3--|
--1---------3------------|---------------3--------|---------------4--------|
-------------------------|--1---------1-----------|------------3-----------|
-------------------------|------------------------|--3---------------------|


  Q    Q    E  E  E  E     H        Q    Q       W                 
------------------------|---------------------|-------------------|
---------------------1--|---------------------|-------------------|
--3----0----1-----1-----|--5--------3----1----|--1----------------|
--3---------3--3--------|--3------------------|--3----------------|
------------------------|--4------------------|--3----------------|
--1---------1-----------|---------------------|-------------------|


                                                         |---3--|   
  H        H           H.           Q       H.           E   E  E   
--------------------|--1-----------------|--0-------------------0--|
--------------------|--1-----------------|--1------------1h--3-----|
--0-----------------|--0-----------------|--0----------------------|
--3--------2--------|--------------------|-------------------------|
--3-----------------|--3------------3----|--3----------------------|
--------------------|--------------------|-------------------------|


                 ^                                                            
                                                           |--3--|  |--3--|   
  Q.     E  Q    E  E     Q.     E  Q.     S S    H        E  E  E  E  E  E   
--1--------------1--1--|--1----------------1-3-|--4-----------------------4--|
--1--------------1-----|------------4----------|--4--------------------4-----|
------------1----------|--3---------0----------|--5--------------5-----------|
--3------3-------3-----|--1------1-------------|--------------6-----6--------|
-----------------------|-----------------------|-----------6-----------------|
-----------------------|-----------------------|--4--------------------------|


  ^                     ^                                                
  H        Q    Q       Q.     E  E  E  E   E     Q    Q    E  E  E  E   
--4--------2---------|--2------2--1------------|------------------------|
--4--------2---------|--1------------0--1s--4--|--4----1----2-----------|
--6------------------|--3----------------------|--3----3----------3--1--|
--4--------4----4----|--1---------3------------|---------------3--------|
---------------------|-------------------------|--1---------1-----------|
---------------------|-------------------------|------------------------|


  Q.     E  E  E  E  E     Q    Q    E  E  E  E     H        Q    Q     
------------------------|------------------------|---------------------|
--2------2--1-----------|---------------------1--|---------------------|
--3---------0-----0--3--|--3----0----1-----1-----|--5--------3----1----|
------------2--4--------|-------2-------3--------|--3------------------|
------------3-----------|--3---------3-----------|--4------------------|
--3---------------------|--1---------------------|---------------------|


                                                         ^                  
  E  E  E  E  E  Q.        E  E  E  E  E  E  S S  S S    Q    H.            
------------------------|---------------------------0-|--1-----------------|
------------------------|----------------------1h-3---|--1-----------------|
--1---------------------|--0-----------------3--------|--3-----------------|
--3---------------------|--3-----------2--------------|--3-----------------|
--3--3-----3--3--3------|--3--3-----3--3--L-----------|--1----1------------|
------------------------|-----------------------------|--------------------|


  ^                                                                           
  W                   E  S E  S E  S E  S E  E     E  S E  S E  S E  S E  E   
--0----------------|--1-------------------------|----------------------------|
--1----------------|----------------------------|----------------------------|
--3----------------|-----0-1--0----0-1--0----0--|-----0-1--0----0-1--0----0--|
--3----------------|--3---------3---------3-----|--3---------3---------3-----|
--1----------------|----------------------------|----------------------------|
-------------------|----------------------------|----------------------------|


  E  S E  S E  S E  S E  E     E  S E  S E  S E  S E  E     W                 
----------------------------|----------------------------|--1----------------|
----------------------------|----------------------------|--1----------------|
-----0-1--0----0-1--0----0--|-----0-1--0----0-1--0----0--|--1----------------|
--3---------3---------3-----|--3---------3---------3-----|--3----------------|
----------------------------|----------------------------|--3----------------|
----------------------------|----------------------------|--1----------------|


  W                  
--L----------------||
--L----------------||
--L----------------||
--L----------------||
--L----------------||
--L----------------||




Duration Legend
---------------
W - whole
H - half
Q - quarter
E - 8th
S - 16th
T - 32nd
X - 64th
. - note dotted
|-n-|  - n-tuplets


Tablature Legend
----------------
L - tied note
x - dead note
g - grace note
(n) - ghost note
> - accentuded note
NH - natural harmonic
AH - artificial harmonic
TH - tapped harmonic
SH - semi harmonic
PH - pitch harmonic
h - hammer on
p - pull off
b - bend
br - bendRelease
pb - preBend
pbr - preBendRelease
brb - bendReleaseBend
\n/ - tremolo bar dip
\n - tremolo bar dive
-/n - tremolo bar Release up
/n\ - tremolo bar inverted dip
/n - tremolo bar return
-\n - tremolo bar Release down
S - shift slide
s - legato slide
/ -  slide into from below or out of upwards
\ -  slide into from above or out of downwards
~ - vibrato
W - wide vibrato
tr - trill
TP - tremolo picking
T - tapping
S - slap
P - pop
< - fade in
^ - brush up
v - brush down
Login or Register to remove this ad.

12 comments on Dancing Mad (Complete)

dude

5

dude

Such a weird tuning XD I'll

Such a weird tuning XD

I'll have to check this out when I get home.

Not weird, just fuckin'

Not weird, just fuckin' LOOOOOOOOOOOOOW, to keep the tone of the original track. :P

WOW!

5

This is insane dude! Amazing job!

Thanks for all the hard work!

5

Thanks for all the hard work! Much appreciated! You have enriched our lives with this =)

Na, he spent 30 minutes on

Na, he spent 30 minutes on it, this guys is a tab autistic.
(Not even jealous, nop)

Haha, thanks guys. And no, me

Haha, thanks guys.
And no, me ain't autistic, brah :o

holy macaroni

5

holy macaroni

Amazing

5

Holy fuck, not only it's the whole thing, it's also an amazing arrangement. Shame about the weird tuning though.

It's not weird, it's just

It's not weird, it's just down two steps. You can play the whole thing in standard EADGBE tuning, and the only difference will be that it's in a different key :-)

14 min , no way im learning

5

14 min , no way im learning the whole thing xD . . but good job!

Wow this is really something

5

Wow this is really something else I don't know if I could ever memorize such a long piece haha.