Blackjack (Final Fantasy VI) Guitar Tab

Submitted: Mar 28, 2013 by JordanVS

5
Average: 5 (2 votes)
Download | Listen
Game: Final Fantasy VI
Composer(s): Nobuo Uematsu
Style: Arrangement, Fingerstyle
Series: Final Fantasy

This song is also called Airship

AutoScroll: Slow | Medium | Fast
Blackjack                                         
The Airship
Final Fantasy VI
Nobuo Uematsu
JordanVS




     E  E  E  E  E  E  E  E     E  E  E  E   E  E   Q         Q    Q    Q    Q     
E||--------------3-----3-----|--8-----8-----13-----13----||------------------0----|
B||--3-----3-----3-----3-----|--8-----8-----13-----13----||---3--------------0----|
G||--2-----2-----2-----2-----|--7-----7-----12-----12----||*--4-------------------|
D||--0--0-----0-----0-----0--|--0--0-----0------0--------||*--2-------------------|
A||--------------------------|---------------------------||---3----3----3----3----|
E||--------------------------|---------------------------||-----------------------|


  Q    Q    Q    Q       Q    Q    Q    Q       Q    Q    Q    Q     
----------------------|----------------------|----------------------|
----------------------|----------------------|--6----4----3---------|
--0-------------------|-------0----2----3----|--3--------------5----|
--2-------------------|--1-------------------|-----------------5----|
--3----3----3----3----|--3----3----3----3----|--3----3----3----3----|
----------------------|----------------------|----------------------|


  Q    Q    Q    Q       Q    Q    Q    Q       Q    Q    Q    Q     
----------------------|----------------------|----------------------|
--2--------------3----|----------------------|----------------------|
--2--------------2----|------------2----1----|--0-------------------|
----------------------|--4----0--------------|------------2---------|
--2----2----2----2----|--2----2----2----2----|--0----0----0----0----|
----------------------|----------------------|----------------------|


  Q    Q    Q    Q       Q    E  E  E  E  Q       Q    Q    Q    Q     
----------------------|------------------------|----------------------|
----------------------|------------------------|----------------------|
----------------------|--0-------------0--3----|--L-------------------|
--L-------------------|-------1--3-------------|----------------------|
--0----0----0---------|------------------------|----------------------|
-----------------3----|--1----1-----1-----1----|--1----1----1----2----|


  Q    E  E  E  E  Q       Q    Q    Q    Q       Q    E  E  E  E  Q     
------------------------|----------------------|-------------------1----|
--0-------------0--3----|--L-------------------|--3-------1-----3-------|
-------0--2--------0----|--L-------------------|-------3----------------|
--0---------------------|----------------------|------------------------|
------------------------|-----------------0----|--1----1-----1-----1----|
--3----3-----3-----3----|--3----3----3---------|------------------------|


  Q    Q    Q    Q       Q    Q    Q    Q       Q    Q    Q    Q       
--L---------0----1----|--3-------------------|--L--------------------||
-------3--------------|--3-------------------|--L--------------------||
-------3--------------|--5-------------------|--4-------------------*||
----------------------|----------------------|--5-------------------*||
--1----1----1----1----|----------------------|-----------------------||
----------------------|--3----3----3----3----|--3----3----3----3-----||


  Q    E  E  E  E  Q       Q    Q    Q    Q       Q    Q    Q    Q     
-------------------2----|--L---------2----4----|--5---------2---------|
--3-------2-----3--3----|--L----5--------------|--2---------2---------|
-------4-----------4----|--L-------------------|------------2---------|
--4---------------------|----------------------|----------------------|
--2----2-----2-----2----|--2----2----2----2----|----------------------|
------------------------|----------------------|--2----2----2----2----|


  Q    Q    Q    Q       Q    Q    Q    Q       Q    E  E  E  E  E  E   
--L-------------------|--5---------1---------|--L----------------------|
--L-------------------|--1---------1---------|--L-------0--3--1--0--3--|
--L-------------------|------------2---------|--L----------------------|
----------------------|----------------------|-------------------------|
----------------------|----------------------|-------------------------|
--2----2----2----2----|--1----1----1----1----|--1----1-----1-----1-----|


  E  E  E  E  Q    Q       Q    Q    Q    Q       Q    Q    Q    Q     
------------------------|----------------------|--5---------1---------|
--1--0--1---------------|----------------------|--1---------1---------|
-----------2--L---------|--L-------------------|------------2---------|
-----------2--L---------|--L-------------------|----------------------|
--0-----0-----0----0----|--0----0----0---------|----------------------|
------------------------|-----------------3----|--1----1----1----1----|


  Q    E  E  E  E  E  E     E  E  E  E  Q    Q       Q    Q    Q    Q     
--L----------------------|-----------0--L---------|--L-------------------|
--L-------0--3--1--0--3--|--1--0--1---------------|-----------------0----|
--L----------------------|-----------2--L---------|--L---------2---------|
-------------------------|------------------------|------------2---------|
-------------------------|--0-----0-----0----0----|--0----0----0----0----|
--1----1-----1-----1-----|------------------------|----------------------|


  Q    E  E  Q    Q       Q    Q    Q    Q       Q    E  E  Q    Q     
-----------------------|----------------------|-----------------------|
----------4--L---------|--L----4--------------|--0----1--3--L---------|
--5----7--5--L---------|--L----5----7----5----|-------0--0--L---------|
--6--------------------|-----------------6----|--0--------------------|
-----------------------|----------------------|-----------------------|
--4----4-----4----4----|--4----4----4----4----|--3----3-----3----3----|


  Q    Q    Q    Q       Q    E  E  Q    Q       Q    Q    Q    Q     
----------------------|-----------------------|----------------------|
--L-------------------|----------4--L---------|--L----4--------------|
--L-------------------|--5----7--5--L---------|--L----5----7----5----|
----------------------|--6--------------------|-----------------6----|
----------------------|-----------------------|----------------------|
--3----3----3----3----|--4----4-----4----4----|--4----4----4----4----|


  Q    E  E  Q    Q       Q    Q    Q    Q       W                  
-------0--1--L---------|--L-------------------|-------------------||
--3--------------------|----------------------|--3----------------||
-----------------------|----------------------|--4----------------||
--0-------3--L---------|--L-------------------|-------------------||
-----------------------|------------0----2----|--3----------------||
--3----3-----3----3----|--3----3--------------|-------------------||




Duration Legend
---------------
W - whole
H - half
Q - quarter
E - 8th



Tablature Legend
----------------
L - tied note
^ - brush up
v - brush down
Login or Register to remove this ad.

1 comment on Blackjack

I'm surprised how much I like

5

I'm surprised how much I like this =)