Ads

nostalgia (Final Fantasy V) Guitar Tab

Submitted: May 13, 2020 by chimatte (Last updated: May 18, 2020)

5
Average: 5 (1 vote)
Download | Listen
Game: Final Fantasy V
Composer(s): Nobuo Uematsu
Style: Fingerstyle
Series: Final Fantasy

Click here for a video example.

AutoScroll: Slow | Medium | Fast
                                  NOSTALGIA                                     


Traccia 1 (Capo 3)
     E  E  E  E  E  E  E  E     E  E  E  E  E  E  E  E   
E||--------------------0--L--|--------------------------|
B||--------0--1--3--L--1-----|--0--L--L--L--0-----1-----|
G||--------2-----4-----------|--------2-----------------|
D||--0--2-----2-----2-----2--|-----2-----2-----2-----2--|
A||--0--L--------------------|--0-----------------------|
D||--------------------------|--------------------------|


  E  E  E  E  E  E  E  E     E  E  E  E  E  E  E  E   
--------------------0--L--|--------------------------|
--------0--1--3--L--------|--0--L--L--L--L--L--L--L--|
--------------0-----2-----|--------------0-----2-----|
--0--2--3-----------------|--------3-----------------|
-----3-----3-----3-----3--|-----3-----3-----3-----3--|
--3-----------------------|--3-----------------------|


  E  E  E  E  E  E  E  E     E  E  E  E  E  E  E  E   
--------------------------|--------------------------|
--------0--L--------------|--0--L--L--L--L--L--------|
--------------------------|--------------------------|
--0--2--0-----2--L--0--2--|--------2-----4-----2--0--|
-----0-----0-----0-----0--|-----2-----2-----2--L--2--|
--0-----------------3-----|--2-----------------------|


  E  E  E  E  E  E  E  E     E  E  E  E  E  E  E  E     
--------------------------|---------------------------||
--------------------------|---------------------------||
--------------------------|--------------0-----------*||
--0-----------2--L--3-----|--------3-----------3-----*||
-----3--2--3-----3-----3--|-----3-----3-----3-----3---||
--3--L--3--L--5-----------|--3------------------------||


  E  E  E  E  E  E  E  E     E  E  E  E  E  E  E  E   
--------------------------|--------------------------|
--------------------------|--------------------------|
--------------2--L--------|--------------0-----------|
--0-----------------3-----|--------3-----------3-----|
-----3--2--3-----3-----3--|-----3-----3-----3-----3--|
--3--L--3--L--5-----------|--3-----------------------|


  E  E  E  E  E  E  E  E     E  E  E  E  H           E  E  E  E  Q    E  E   
--------------------------|-----------0--3--------|-------------------------|
--3--1-----1--0-----------|--------0-----5--------|-------------------------|
--------2--------2--0-----|-----0--------4--------|--------2--L--2----------|
-----------0--3--L--L--3--|--2--L--L--L-----------|--0--2-----3-------0--2--|
--------0-----------------|-----------------------|-----0--3----------------|
--0--3--------------------|--2--L--L--L-----------|--3----------------------|


  E  E  E  E  Q    Q       E  E  E  E  E  E  E  E     E  E  E  E  Q    E  E   
-----------0--4----L----|--------------------------|-----------0--4----------|
--0-----0-----5----L----|--3--1-----1--0-----------|--0-----0-----5----------|
-----1------------------|--------2--------2--0-----|-----1--------4----------|
--2--L--L--L------------|-----------0--3--L--L--3--|--2--L--L--L-------2--0--|
--------------3----5----|--------0-----------------|-------------------------|
--2--L--L--2------------|--0--3--------------------|--2--L--L--L-------------|


  E  E  E  E  E  E  E  E     W                  
--------------------------|-------------------||
-----------------------5--|--6----------------||
-----------------2--5-----|--5----------------||
--0-----------2-----------|--7----------------||
-----3--2--3--------------|-------------------||
--3--L--L--L--3--L--------|-------------------||




Duration Legend
---------------
W - whole
H - half
Q - quarter
E - 8th
S - 16th
T - 32nd
X - 64th
. - note dotted
|-n-|  - n-tuplets


Tablature Legend
----------------
L - tied note
x - dead note
g - grace note
(n) - ghost note
> - accentuded note
NH - natural harmonic
AH - artificial harmonic
TH - tapped harmonic
SH - semi harmonic
PH - pitch harmonic
h - hammer on
p - pull off
b - bend
br - bendRelease
pb - preBend
pbr - preBendRelease
brb - bendReleaseBend
\n/ - tremolo bar dip
\n - tremolo bar dive
-/n - tremolo bar Release up
/n\ - tremolo bar inverted dip
/n - tremolo bar return
-\n - tremolo bar Release down
S - shift slide
s - legato slide
/ -  slide into from below or out of upwards
\ -  slide into from above or out of downwards
~ - vibrato
W - wide vibrato
tr - trill
TP - tremolo picking
T - tapping
S - slap
P - pop
< - fade in
^ - brush up
v - brush down
Login or Register to remove this ad.