Nostalgia (Final Fantasy V) Guitar Tab

Submitted: Dec 16, 2016 by Basisti94

5
Average: 5 (1 vote)
Download | Listen
Game: Final Fantasy V
Composer(s): Nobuo Uematsu
Style: Arrangement, Fingerstyle
Series: Final Fantasy

This song is also called The Sorrow of Parting

AutoScroll: Slow | Medium | Fast
                        Nostalgia
                                
Final Fantasy V
Nobuo Uematsu
Guitar arrangement by Basisti94 (Miro Laaksonen)
30.10.2016

I've had this finished for ages now but apparently never remembered
to upload it here before.


Capo 3
Tempo ~ 82

     E  E  E  E  E  E  E  E     E  E  E  E  E  E  E  E   
E||--------------------0-----|--------------------------|
B||--------0--1--3-----------|--0-----------0-----1-----|
G||--------2-----------------|--------2-----------------|
D||--0--2-----2-----2-----2--|-----2-----2-----2-----2--|
A||--0-----------------------|--0-----------------------|
E||--------------------------|--------------------------|


  E  E  E  E  E  E  E  E     E  E  E  E  E  E  E  E   
--------------------0-----|--------------------------|
--------0--1--3-----------|--0-----------------------|
--------------0-----2-----|--------------0-----2-----|
--0--2--------------------|--------3-----------------|
-----------3-----3-----3--|-----3-----3-----3-----3--|
--1-----------------------|--1-----------------------|


  E  E  E  E  E  E  E  E     E  E  E  E  E  E  E  E   
--------------------------|--------------------0-----|
--------0-----------------|--0--------------------3--|
--------------------------|--------------------1-----|
--0--2--------2-----2--3--|--------2-----4-----------|
--0--------0-----0-----0--|-----2-----2-----2-----2--|
--------------------------|--0-----------------------|


  E  E  E  E  E  E  E  E     E  E  E  E  E  E  E  E   
--------------0-----------|--------------------------|
--3--1--0--1--------------|--------------------------|
--------------0-----------|--------------0-----------|
--------------------3-----|--------3-----------3-----|
-----3-----3-----3-----3--|-----3-----3-----3-----3--|
--1-----------------------|--1-----------------------|


  E  E  E  E  E  E  E  E     E  E  E  E  E  E  E  E   
--------------------0-----|--------------------------|
--------0--1--3-----------|--0-----------0-----1-----|
--------2-----------------|--------2-----------------|
--0--2-----2-----2-----2--|-----2-----2-----2-----2--|
--0-----------------------|--0-----------------------|
--------------------------|--------------------------|


  E  E  E  E  E  E  E  E     E  E  E  E  E  E  E  E   
--------------------0-----|--------------------------|
--------0--1--3-----------|--0-----------------------|
--------------0-----2-----|--------------0-----2-----|
--0--2--------------------|--------3-----------------|
-----------3-----3-----3--|-----3-----3-----3-----3--|
--1-----------------------|--1-----------------------|


  E  E  E  E  E  E  E  E     E  E  E  E  E  E  E  E   
--------------------------|--------------------0-----|
--------0-----------------|--0--------------------3--|
--------------------------|--------------------1-----|
--0--2--------2-----2--3--|--------2-----4-----------|
--0--------0-----0-----0--|-----2-----2-----2-----2--|
--------------------------|--0-----------------------|


  E  E  E  E  E  E  E  E     E  E  E  E  E  E  E  E   
--------------------------|--------------------------|
--3--1--0--1--------------|--------------------------|
--------------2-----------|--------------0-----------|
--------------------3-----|--------3-----------3-----|
-----3-----3-----3-----3--|-----3-----3-----3-----3--|
--1-----------------------|--1-----------------------|


   E  E   E  E  E  E  E  E     E  E  E  E  H           E  E  E  E  Q    E  E   
--10--8------8--7--5--------|--0--------------------|-----0--5----------------|
---------10-----------8--6--|--------------0--------|--3----------------3--5--|
----------------0-----------|-----------0-----------|--------------2----------|
---0------------------------|--------2--------------|-----------3-------------|
----------------------------|-----2-----------------|-------------------------|
----------------------------|--0--------------------|--1----------------------|


  E  E  E  E  Q    Q        E  E   E  E  E  E  E  E     E  E  E  E  Q    E  E   
--7---------------------|--10--8------8--7--5--------|--0----------------0-----|
--------------1----3----|---------10-----------8--6--|--------------0-------3--|
--------------1---------|----------------0-----------|-----------1-------------|
--------2---------------|---0------------------------|--------2----------------|
-----2-----2------------|----------------------------|-----2-------------------|
--0---------------------|----------------------------|--0----------------------|


  E  E  E  E  E  E  E  E     W                                      
--------------0-----------|-------------------|-------------------||
--3--1--0--1--------------|-------------------|-------------------||
--------------------------|-------------------|-------------------||
-----------2-----------2--|--3----------------|-------------------||
--------3--------0--3-----|-------------------|-------------------||
--1-----------1-----------|-------------------|-------------------||




Duration Legend
---------------
W - whole
H - half
Q - quarter
E - 8th
S - 16th
T - 32nd
X - 64th
. - note dotted
|-n-|  - n-tuplets


Tablature Legend
----------------
L - tied note
x - dead note
g - grace note
(n) - ghost note
> - accentuded note
NH - natural harmonic
AH - artificial harmonic
TH - tapped harmonic
SH - semi harmonic
PH - pitch harmonic
h - hammer on
p - pull off
b - bend
br - bendRelease
pb - preBend
pbr - preBendRelease
brb - bendReleaseBend
\n/ - tremolo bar dip
\n - tremolo bar dive
-/n - tremolo bar Release up
/n\ - tremolo bar inverted dip
/n - tremolo bar return
-\n - tremolo bar Release down
S - shift slide
s - legato slide
/ -  slide into from below or out of upwards
\ -  slide into from above or out of downwards
~ - vibrato
W - wide vibrato
tr - trill
TP - tremolo picking
T - tapping
S - slap
P - pop
< - fade in
^ - brush up
v - brush down
Login or Register to remove this ad.