Ads

Nostalgia (Final Fantasy V) Guitar Tab

Submitted: Aug 20, 2010 by Daugreano

0
Download | Listen
Game: Final Fantasy V
Composer(s): Nobuo Uematsu
Style: Alternate picking, Transcription
Series: Final Fantasy

AutoScroll: Slow | Medium | Fast
Song: Sadness
Game: Final Fantasy V
Composer: Nobuo Uematsu
Tabbedby: Daugreano

Don't acknowledge the first measure until you repeat...

Guitar: 
            Repeat these measures, as a group, once.
          |-------------------------------------------------------------------------
   W        E   E   E   E   Q    Q      W        E   E   E   E   Q    Q      W
E|--------|-----------------1----3----|--------|-----------------1----3----|--------|
B|--------|---------3---4-------------|-3------|---------3---4-------------|-3------|
G|--------|-----0---------------------|--------|-----0---------------------|--------|
D|--------|-3-------------------------|--------|-3-------------------------|--------|
A|--------|---------------------------|--------|---------------------------|--------|
E|--------|---------------------------|--------|---------------------------|--------|

---------------------------------------------------------------------------|
   E   E   H     E   E     H.     E   E     E   E   E   E   H       W        E   E   E   E   E   E   E   E
E|-----------------------|----------------|-----------------------|--------|-1-------------------------------|
B|---------3-------------|-3--------------|-----------------------|--------|-----4---1---4---3---1-----------|
G|-----0-------------0---|--------0-------|-----------------0-----|--------|-------------------------3---1---|
D|-3-------------3-------|------------3---|-3---1---0---1---------|--------|---------------------------------|
A|-----------------------|----------------|-----------------------|--------|---------------------------------|
E|-----------------------|----------------|-----------------------|--------|---------------------------------|

    W       E   E   H     E   E     W        E   E   E   E   E   E   E   E     H.     E   E
E|--------|-----------------------|--------|-1-------------------------------|----------------|
B|--------|---------1-------------|-3------|-----4---1---4---3---1-----------|----------------|
G|-0------|-----0-------------0---|--------|-------------------------3---1---|-0------0-------|
D|--------|-3-------------3-------|--------|---------------------------------|------------3---|
A|--------|-----------------------|--------|---------------------------------|----------------|
E|--------|-----------------------|--------|---------------------------------|----------------|

   E   E   E   E   H
E|-----------------------|
B|-----------------------|
G|-----------------0-----|
D|-3---1---0---1---------|
A|-----------------------|
E|-----------------------|

Then Repeat the whole thing...

Login or Register to remove this ad.