Ads

A New World (Final Fantasy V) Guitar Tab

Submitted: May 05, 2012 by JordanVS (Last updated: May 08, 2012)

5
Average: 5 (3 votes)
Download | Listen
Game: Final Fantasy V
Composer(s): Nobuo Uematsu
Style: Arrangement, Fingerstyle
Series: Final Fantasy

This song is also called The Land Unknown

AutoScroll: Slow | Medium | Fast
A New World                               
Merged World Map
The Land Unknown
Final Fantasy V
Nobuo Uematsu                  
JordanVS


  *Capo on 1st Fret



    S S S S S S S S S S S S S S S S    S S S S S S S S S S E  E  E   
E||----------------------------------|-------------------------------|
B||----0---0---0---0---0---0---0---0-|----0---0---0---0---0----0-----|
G||----------------------------------|----------------------------6--|
D||----------6---------------6-------|----------6--------------6-----|
A||------6-------6-------6-------6---|------6-------6-------6-----6--|
E||--4---------------4---------------|--4---------------4------------|

*Segno

  E  E  Q    E  E  E  E     E  E  E  E  Q    E  E   
-------------------------|-------------------------|
--3----------L--3--2-----|--0----------------0--2--|
--4----------L--------2--|-------------------------|
--4----------L-----------|--------4----------------|
--2--2-------------------|--2--2-------------0-----|
-------------------2--2--|--------2--2-------------|


  E  E  Q    Q    Q       Q.     Q    E  E  E   
------------------5----|--2--------------3--5--|
--3----------2---------|-----------------------|
-----------------------|---------0-------------|
------------------0----|--------------4--2--0--|
-----------------------|-----------------------|
--3--3-----------------|--3--------------------|


  Q.     E  E  E  E  E     Q    E  Q.     E  E   
--7---------L--7--5--3--|--5--------------------|
------------------------|-------3---------0--3--|
------------------------|-----------------------|
------------------------|-----------------------|
--3---------------3-----|--2--------------2-----|
---------3--------------|----------2------------|


  E  E  Q    E  E  E  E     E  E  E  E  Q    E  E   
--0----------L-----------|--0----------------------|
----------------1--1--3--|-------------------0--2--|
-------------------------|-------------------------|
-------------------3-----|--2--2-------------------|
-------------------------|-------------------------|
--1--1-------------------|--------0--0-------------|


  E  E  E  Q    E  E  E     Q    E  E  Q    E  E   
-------------------------|------------------------|
--4-------------4--------|------------------0--2--|
-----------4-------6--3--|--4---------------------|
--------6----------------|-------6-----6----------|
-----6-------------------|----------6-------------|
--4----------------------|--4---------------2-----|


  Q.     E  E  E  E  E     H.           E  E   
---------------------2--|---------------0--2--|
--4---------L--2--2-----|--4------------------|
------------------------|---------------------|
---------2-----1--------|---------------------|
------------------4--2--|--0------------0-----|
--0---------------------|---------------------|


  E  E  E  Q    E  E  E     Q    Q    Q    E  E   
--4-------------4--2--0--|-----------------------|
-----------2-------------|--7----4------------4--|
--------2----------2-----|------------4----------|
-----2-------------------|-----------------------|
--0----------------0-----|-----------------------|
-------------------------|--4--------------4-----|


                        |----3----|                
  H.           E  E     Q    Q    Q    Q    E  E   
---------------------|----------------------1--2--|
--2------------------|-----------------2----------|
--1------------------|------------1---------------|
--3------------------|-------3--------------------|
--4------------------|--4-------------------------|
------------------4--|----------------------------|


  E  E  E  E  E  E  E  E     Q    Q    E  E  E  E   
--4--------------4--2--0--|-------7----------------|
-----------2--------------|--7---------4-----------|
--------2-----2-----2-----|-------4-------------4--|
-----2-----------2--------|------------------6-----|
--0-----------------------|---------------6--------|
--------------------------|--4---------4-----------|


  Q    E  E  E  E  E  E     Q    Q    E  E  E  E   
--0-------------------0--|-------4----------------|
----------------2--4-----|--4------------------4--|
-------------2-----------|------------4-----4-----|
----------4--------------|------------6-----------|
-------4-----------------|-------6-------6--------|
--2----------------------|--4---------------------|

                                                 *Fine

  E  E  E  E  E  E  E  E     Q    Q    Q    Q       W                 
--4--------------4--2--0--|----------------------|-------------------|
-----------2--------------|--7----4---------4----|--2----------------|
--------2-----2-----2-----|------------4---------|--1----------------|
-----2-----------2--------|------------6---------|--3----------------|
--0-----------------------|-------6---------6----|--4----------------|
--------------------------|--4-------------------|-------------------|

              *Da Segno

  H.           E  E    
---------------------||
---------------0--2--||
---------------------||
---------------------||
---------------------||
---------------------||




Duration Legend
---------------
W - whole
H - half
Q - quarter
E - 8th
S - 16th
. - note dotted


Tablature Legend
----------------
L - tied note
^ - brush up
v - brush down
Login or Register to remove this ad.

19 comments on A New World

It's your arrangement, so you

It's your arrangement, so you can ignore this of course, but it sounds funny to me starting the song on an inversion. It doesn't really get the harmonic motion between the intro and the next section, either.

So when I was playing through, I decided to play the intro like this instead:

   S S S S S S S S S S S S S S S S  S S S S S S S S S S E   E   E         
e |--------------------------------|--------------------------------|
B |--0---0---0---0---0---0---0---0-|--0---0---0---0---0-----0-------|
G |--------------------------------|----------------------------6---|
D |--------6---------------6-------|--------6---------------6-------|
A |----6-------6-------6-------6---|----6-------6-------6-------6---|
E |4---------------4---------------|4---------------4---------------|

Good point.But I wouldn’t

Good point.But I wouldn’t arrange like that because I didn’t want to replace the “C” from the harp for the bass note “A” like you did. Both ways sounds fine so I don’t see a problem.:D
Anyway, thanks for the advice and for the compliment.

Oh, to me it's more important

Oh, to me it's more important to preserve the bass note :-D

Oh, but besides that one

Oh, but besides that one thing, I think it is a nice arrangement :-D

I agree with Auri on

I agree with Auri on this...because the harp plays the bass notes as well, you can hear it in the original with the harp playing the part you have written out and a lower "bum bum bum, bum bum bum, bum bum bum," pattern that is also played in the harp with the root note. This is aside from the actual bass playing the lower bass line.

Just playing the inversion as the intro is very uncomfortable to listen to, it's too ambiguous to start with, you need to stabilize yourself with the root. The rest of the piece is very grounded, so there is no real reason not to have the introduction the same way. Feel free to ignore the advice, but imho, Auri is dead on.

Yeah, you guys are right,

Yeah, you guys are right, it’s probably better to change the intro.
So, if I upload an improved version can this old tab be updated?

Yeah, go for it!

Yeah, go for it!

Here: A New

Here:

A New World-FFV.zip

What do I have to do now? =P

Wait for a mod to update it .

Wait for a mod to update it . . .

. . . almost . . .

. . . Yeah! That's the stuff.

auriplane saidWait for a mod

Hahaha.

Hahaha.

How many gifs do you have

How many gifs do you have saved for comedic insertion purposes, Kabuki?

a TON.

a TON.

if theres one thing bear

if theres one thing bear knows about, its comedic insertion

(No subject)

~<3~

~<3~

This thread made me bust up

This thread made me bust up laughing, 2.5 years later

Jokes and gifs

Jokes and gifs aside...
Thanks for the help Auri!

This tab is very nice but

5

This tab is very nice but really tough on the left hand.