A New World (Final Fantasy V) Guitar Tab

Submitted: Aug 20, 2010 by Daugreano

3
Average: 3 (1 vote)
Download | Listen
Game: Final Fantasy V
Composer(s): Nobuo Uematsu
Style: Alternate picking, Transcription
Series: Final Fantasy

This song is also called Another World

AutoScroll: Slow | Medium | Fast
Song: Another World
Game: Final Fantasy V
Composer:Nobuo Uematsu
Tabbed by: Daugreano

Guitar:

   E   Q    E   E   Q    E     E   Q    E   E   E   E   E     H     E   E   E   E
E|---------------------------|------------------------------|-----------------------|
B|---------------------------|----------------------1---3---|-4---------4---3-------|
G|---------------------------|------------------------------|-------------------3---|
D|---------------------------|------------------------------|-----------------------|
A|-0---3----3---0---3----3---|-0---3----3---0---0-----------|-----------------------|
E|---------------------------|------------------------------|-----------------------|

   Q    H     E   E     H     Q    Q      H.     E   E     H     E   E   E   E
E|--------------------|------------6----|-3------4---6---|-8---------8---6---4---|
B|-1----------1---3---|-4-----3---------|----------------|-----------------------|
G|------0-------------|-----------------|----------------|-----------------------|
D|--------------------|-----------------|----------------|-----------------------|
A|--------------------|-----------------|----------------|-----------------------|
E|--------------------|-----------------|----------------|-----------------------|

   Q    H     E   E     H     E   E   E   E     H.     E   E     H     E   E   E   E
E|-6------------------|-1---------------------|-1--------------|-0---------0-----------|
B|------4-----1---4---|-----------2---2---4---|--------1---3---|---------------3---0---|
G|--------------------|-----------------------|----------------|-----------------------|
D|--------------------|-----------------------|----------------|-----------------------|
A|--------------------|-----------------------|----------------|-----------------------|
E|--------------------|-----------------------|----------------|-----------------------|

   Q    H     Q   Q     H     Q    Q      H.     E   E     H     E   E   E   E
E|--------------------|-0----------3----|-0------1---3---|-5---------5---3---1---|
B|-1----------1---3---|-------3---------|----------------|-----------------------|
G|------2-------------|-----------------|----------------|-----------------------|
D|--------------------|-----------------|----------------|-----------------------|
A|--------------------|-----------------|----------------|-----------------------|
E|--------------------|-----------------|----------------|-----------------------|

   Q    Q    Q.    E     W        H.     E   E     E   E   E   E   E   E   E   E  
E|-3----0----------0---|--------|-2------2---3---|-----------------1---------------|
B|-----------1---------|-3------|----------------|-------------3-------3-----------|
G|---------------------|--------|----------------|---------3---------------3-------|
D|---------------------|--------|----------------|-----3-----------------------3---|
A|---------------------|--------|----------------|-1-------------------------------|
E|---------------------|--------|----------------|---------------------------------|

   E   E   E   E   E   E   E   E     E   E   E   E   E   E   E   E     E   E   E   E   E   E   E   E
E|---------------------------------|---------------------------------|-----------------0---------------|
B|-------------1---3---1-----------|-----------------3---------------|-------------1-------1-----------|
G|---------2---------------2-------|---------0---3-------3-----------|---------0---------------0-------|
D|-----2-----------------------2---|-----0-------------------3---0---|-----2-----------------------2---|
A|-0-------------------------------|---------------------------------|-0-------------------------------|
E|---------------------------------|-3-------------------------------|---------------------------------|

   E   E   E   E   E   E   E   E     E   E   E   E   E   E   E   E 
E|---------------------------------|-----------------0---------------|
B|-----------------3---------------|-------------1-------1-----------|
G|-------------3-------3-----------|---------2---------------2-------|
D|-----0---3---------------3---0---|-----2-----------------------2---|
A|-1-------------------------------|-0-------------------------------|
E|---------------------------------|---------------------------------|

Then Repeat...
Login or Register to remove this ad.