Ads

Music Box (Final Fantasy V) Guitar Tab

Submitted: Oct 20, 2012 by auriplane

5
Average: 5 (4 votes)
Download | Listen
Game: Final Fantasy V
Composer(s): Nobuo Uematsu
Style: Arrangement, Fingerstyle
Series: Final Fantasy

AutoScroll: Slow | Medium | Fast
                          Final Fantasy 5 - Music Box
                           Composed by Nobuo Uematsu

                    Tabbed by auriplane ([email protected])



Capo on 5.


        Part A

   E  E  E  E  E  E   E  E  E  E  E  E   E  E  E  E  E  E   E  E  E  E  E  E
e |2-----3--5-----3--|2-----3--0-----3--|2--0-----0-----3--|2--------0--------|
B |------------------|------------------|------3-----------|------3--------2--|
G |---2--------2-----|---2--------2-----|------------2-----|---2--------2-----|
D |0--------2--------|4--------5--------|4--------2--------|0-----------------|
A |------------------|------------------|------------------|---------4--------|
E |------------------|------------------|------------------|------------------|


   E  E  E  E  E  E   E  E  E  E  E  E   E  E  E  E  E  E   E  E  E  Q.
e |2-----3--5-----3--|2-----3--0-----3--|2--0-----0--------|------------------|
B |------------------|------------------|------3-----3--2--|3-----------------|
G |---2--------2-----|---2--------2-----|------------------|------2-----------|
D |0--------2--------|4--------5--------|4--------2--------|---4--------------|
A |------------------|------------------|------------------|5--------5--------|
E |------------------|------------------|------------------|------------------|

        Part B

   E  E  E  Q     E   E  E  E  E  E  E   Q     E  E  E  E   E  E  E  E  E  E
e |5-----3--2--------|5-----3--2-----0--|------------------|2--------0--------|
B |5-----2--3-----3--|5-----2--3-----2--|3-----3--3--2--3--|---0--3--2--------|
G |------2--------2--|------2-----------|4--------2--------|0--0--4--------0--|
D |---2-----0--------|---2--------0--4--|5--------4--------|2--------2--4-----|
A |4-----------------|4--------2--------|------------------|------------------|
E |------------------|------------------|------------------|------------------|


   E  E  E  E  E  E   E  E  E  E  E  E   Q     E  E  E  E   E  E  E  Q.
e |5-----3--2--------|5--2--3--2-----0--|------------------|2-----3--0--------|
B |---0--2--3--2--3--|5-----5--3-----2--|3-----3--3--2--3--|---------2--------|
G |2--------------4--|------------------|4--------1--------|2--------2--------|
D |------------------|---------0--2--4--|6--------2--------|------2-----------|
A |0-----1--2--------|4-----------------|------------------|0--4--------------|
E |------------------|------------------|------------------|------------------|

        Part C    (same as A)

   E  E  E  E  E  E   E  E  E  E  E  E   E  E  E  E  E  E   E  E  E  E  E  E
e |2-----3--5-----3--|2-----3--0-----3--|2--0-----0-----3--|2--------0--------|
B |------------------|------------------|------3-----------|------3--------2--|
G |---2--------2-----|---2--------2-----|------------2-----|---2--------2-----|
D |0--------2--------|4--------5--------|4--------2--------|0-----------------|
A |------------------|------------------|------------------|---------4--------|
E |------------------|------------------|------------------|------------------|


   E  E  E  E  E  E   E  E  E  E  E  E   E  E  E  E  E  E   E  E  E  Q.
e |2-----3--5-----3--|2-----3--0-----3--|2--0-----0--------|------------------|
B |------------------|------------------|------3-----3--2--|3-----------------|
G |---2--------2-----|---2--------2-----|------------------|------2-----------|
D |0--------2--------|4--------5--------|4--------2--------|---4--------------|
A |------------------|------------------|------------------|5--------5--------|
E |------------------|------------------|------------------|------------------|



Duration Legend
---------------
    Q.  Quarter (dotted)
    Q   Quarter
    E   Eighth

Login or Register to remove this ad.

1 comment on Music Box

Hey I didn't rate this yet!

5

Hey I didn't rate this yet! Well duh, we've been talking about the fingerings for like an hour. I'm thinking of recording this for my brother and his wife's unborn child, like a nursery tune.