Ads

Medley (Final Fantasy V) Guitar Tab

Submitted: Nov 28, 2014 by Bhael (Last updated: Nov 28, 2014)

5
Average: 5 (6 votes)
Download | Listen
Game: Final Fantasy V
Composer(s): Nobuo Uematsu
Style: Arrangement, Fingerstyle, Natural harmonics
Series: Final Fantasy

Click here for a video example.

AutoScroll: Slow | Medium | Fast
                                    Medley                                      
                               Final Fantasy V
                                Nobuo Uematsu

Lenna's Theme and Tenderness In The Air


        NH            NH                                
        Q     Q       Q    Q       E  E  Q    H         
D||-----------------------------|--0-------------------|
A||----------10------------7----|-----7----------------|
F||----------------<>12---------|--------6----L--------|
C||--<>12-----------------------|----------------------|
G||-----------------------------|----------------------|
D||-----------------------------|----------------------|


  ^                                                    ^                       
  E  E  E  Q    E  E  E     E  E  E  E   Q     Q       E  E  E  Q    E  E  E   
--0-------------------0--|--------------------------|-------------------------|
-----7----------0--------|--3-----0--L--------------|--------0--L-------------|
--------6--L-------6-----|--------------------------|-------------------------|
--4----------------------|-----4--------(2)----L----|--2--4----------4--2--4--|
-------------------------|--------------------------|--5----------------------|
-------------------------|--------------------------|--3----------------------|


  H         H            E  E  E  Q    E  E  E     E  E  E  E  E  E  Q     
----------------------|-------------------------|-------------------------|
--2-------------------|--------2--L-------------|--4-----------------2----|
----------------------|----------------2-----2--|--------2-----4----------|
-----------(2)--------|--2--4-------------4-----|-----4-----4-----4-------|
--0-------------------|-------------------------|--2----------------------|
----------------------|--2----------------------|-------------------------|


        ^          ^       ^                        ^                        
  E  E  Q    E  E  Q       E  E  E  E  Q    Q       E  E  E  E  E  E  E  E   
--------5----3-----2----|--0--2------------------|--0--2-----------------0--|
--3-----0----------0----|--------2---------------|--------2-----------2-----|
--------0-------0-------|--2--------2------------|--2--------2-----4--------|
-----0------------------|--------------2----L----|--------------4-----------|
------------------------|--0---------------------|--------------------------|
--3---------------------|------------------------|--2-----------------------|


  E  E  E  E  E  E  E  E     E  E  E  E  E  E  E  E     E  E  E  E  E  E  Q     
--------------------------|--------------------------|-------------------------|
--3-----0-----------------|--------0-----------------|--2----------------------|
--------------------2-----|--------------------------|--------2----------------|
-----0-----0-----2-----2--|--2--4-----0-----4--2--4--|-----2-----2-----2-------|
--2-----------0-----------|--------------2-----------|--0-----------0----------|
--------------------------|--3-----------------------|--------------------3----|


  E  E  E   E    E   E  E  E     E  E  E  E  E  E  E  E   
------------------------------|--------------------------|
--------2---------------------|--0-----------------------|
-----------(2)-------2-----2--|--------0-----------------|
--2--4----------(4)-----4-----|-----0-----0-----0-----0--|
------------------------------|--------------------------|
--2---------------------------|--3-----------3-----2-----|


                                         ^                                    
  E  E  E  E  E  E  E  E     E  E  E  E  H           E  E  E  E  E  E  E  E   
-----------------------0--|--------------0--------|-----------2--4-----------|
--------0-----3-----------|--3--------3--2--------|--3-----3--------5--------|
--------------------0-----|--------2-----2--------|-----2--------------4-----|
-----2-----2-----2--------|-----2--------2--------|--0--------------------6--|
--------------------------|--0-----------0--------|--------------------------|
--0-----------0-----------|-----------------------|--------------------------|


  E  E  E  E  E  E  E  E     E  E  E  E  E  E  E  E     E  E  E  E  H         
-----------5--7-----------|-----------2--3-----------|--------------1--------|
--------6--------8--------|--------3--------5--------|-----------3-----------|
-----5--------------7-----|-----2--------------5-----|--------2--------------|
--0--------------------9--|--0--------------------5--|-----3-----------------|
--------------------------|--------------3-----------|--1--------------------|
--------------------------|--------------------------|-----------------------|


                      ^    ^    ^                              ^         
  W                   Q    Q    Q    Q       E   E  E   E  E   E  E  E   
--L----------------|--2----0--------------|-----10--9--10--7--10--5--7--|
-------------------|------------3---------|---------7----------0--------|
-------------------|--2----3----2----3----|------7----------------------|
-------------------|--0---------0---------|--0--------------------------|
-------------------|----------------------|-----------------------------|
-------------------|-------3--------------|-----------------------------|


                                   ^  ^               
  E  E  E  E  E  E  E  E     E  E  E  E  E  E  E  E   
--5-----3-----2-----------|-----3--2--3--5--0--2--3--|
--------------------3-----|-----------0--------2-----|
-----3-----3-----2-----2--|--------0-----------------|
--------------------------|--------------------------|
--------------------------|--------------0-----------|
--0-----------------------|--0-----------------------|


                                                  ^      
  E  E  E  E  E  E  E  E     E   E  E   E  E   E  E  E   
--2-----------------------|-----10--9--10--7--10--5--7--|
--------3-----------5-----|---------7-------------0-----|
-----2-----2-----3-----3--|------7-------------0--------|
--0-----------0-----------|--0--------------------------|
--------------------------|-----------------------------|
--------------------------|-----------------------------|


                                               NH    NH            
           |--3-|                                                  
  E  E  E  S S  S E  E  E  S  S    E  E  E     E     E  Q    S  S  
--5-----3----2h-3-2--------0h-2-|--3-------------------------0h-2-|
------------------------3-------|--------0------------------------|
-----3-----3---------2----------|-----------<>19--<>19--L---------|
------------------0-------------|---------------------------------|
--------------------------------|---------------------------------|
--0-----------------------------|-----3---------------------------|


              NH    NH          ^    ^    ^                  ^           ^      
  E  E  E     E     H           Q    Q    Q    Q       E  E  E  E  E  E  E  E   
--3--------------------------|--2----0--------------|-----5--3--2--0-----------|
--------0--------------------|------------3---------|--------3--------3--2--3--|
-----------<>19--<>19--------|--2----3----2----3----|--2-----------------2-----|
-----------------------------|----------------------|--0-----------------------|
-----------------------------|----------------------|--------------------------|
-----0-----------------------|----------------------|--------------------------|


              ^                 ^                     
  E  E  E  E  E  E  E  E     E  E  E  E  E  E  E  E   
--2-----------------------|-----2--0-----------------|
--------2-----2--------2--|-----------3--2--0-----0--|
-----2-----2--2-----2-----|-----2--------------3-----|
--------------4--4--------|--------------------------|
--4-----------4-----------|--------------2-----------|
--------------------------|--2-----------------------|


  E  E  E  E  E  E  E  E     E  E  E  E  E  E  E  E   
--------------------------|--------------0-----------|
--3-----------------------|-----------3-----3--2--3--|
--------0-----0-----2--0--|--------2-----------------|
-----0-----0-----2--------|--4-----------------------|
--------------------------|-----5--------2-----------|
--3-----------0-----------|--------------------------|


              ^                          ^                          ^         
  E  E  E  E  E  E  E  E     E  E  E  E  E  E  E  E     E  E  E  E  H         
--2-----------------------|--3-----------------------|--2--------------------|
--------2-----2--------0--|--------------0--------0--|--------------2--------|
-----2-----2--2-----3-----|--------0-----0-----3-----|--------2-----2--------|
--------------4--4--------|-----0-----0--0--0--------|-----2-----2--2--------|
--------------------------|--------------------------|--0-----------0--------|
--4-----------4-----------|--3-----------------------|-----------------------|


  Q    E  E  E  E  E  E     E  E  E  E  E  E  E  S  S  
-------2-----------3-----|--------2-----------3-------|
-------3-----------3-----|--------3-----------3-------|
--2-------2-----4-----4--|-----2-----2-----4----------|
--0----------0-----------|--0-----------0--------4h-5-|
-------------------------|----------------------------|
-------------------------|----------------------------|


                                                       ^                  
  Q    E  E  E  E  E  E     E  E  E  E  E  E  E  E     W                  
-------2-----------3-----|--------2--------------0--|-------------------||
-------3-----------3-----|--------3-----------3-----|--3----------------||
----------2-----4-----4--|-----2-----2-----4--------|--2----------------||
--4----------5-----------|--4-----------5-----------|--0----------------||
--0----------------------|--------------------------|-------------------||
-------------------------|--------------------------|-------------------||
Login or Register to remove this ad.

1 comment on Medley

That was fantastic!

5

That was fantastic! Favorited!