Ads

Main Theme (Final Fantasy V) Guitar Tab

Submitted: Aug 25, 2013 by The Ripper

4
Average: 4 (4 votes)
Download | Listen
Game: Final Fantasy V
Composer(s): Nobuo Uematsu
Style: Arrangement, Fingerstyle
Series: Final Fantasy

AutoScroll: Slow | Medium | Fast
                                             Final Fantasy
                                           Final Fantasy V
                                       Composed  by Nobuo Uematsu
                                Tabbed by the Ripper  augest 24th 2013
                              


     E  E  E  E  E  E  E  E     Q    H.              E  E  E  E  E  E  E  E   
E||--------------------0-----|--8-----------------|--------------------0-----|
B||--------------1--3-----8--|--------------------|--------------1--3-----8--|
G||-----------0--------------|--------------------|-----------0--------------|
D||-----0--2-----------------|--------------------|-----0--2-----------------|
A||--3-----------------------|--------------------|--3-----------------------|
E||--------------------------|--------------------|--------------------------|


                       ^         ^            ^        ^          
   Q    H.              Q    Q    Q    Q       H        Q    Q     
|--8-----------------|----------------------|--1--------0---------|
|--------------------|-------1----3----L----|--1--------0----3----|
|--------------------|--0----L----4----L----|--2--------0----L----|
|--------------------|--2----L----5----5----|--3--------3----L----|
|--------------------|--3----L----5----L----|---------------------|
|--------------------|----------------------|---------------------|


   ^          ^            ^        ^           ^         ^          
   Q    E  E  Q    Q       H        H           Q    Q    Q    Q     
|-----------------------|--------------------|------------0---------|
|--1----0--1--3----L----|--1--------0--------|-------3----2----L----|
|--2-------L--2----5----|--2--------0--------|--2----L---------2----|
|--3-------L--4----L----|--3--------3--------|--3----L----5----L----|
|--3-------L--5----L----|-----------5--------|--5----L--------------|
|-----------------------|--------------------|----------------------|


   ^        ^            ^          ^            ^        ^         
   H        Q    Q       Q    E  E  Q    Q       H        H         
|--3--------1----0----|----------0------------|--0-----------------|
|--3--------2----L----|--3----2-----3---------|--0--------3--------|
|--2--------2----L----|--2----------2----2----|--0--------4--------|
|--3------------------|--0-------L--4----L----|--3--------5--------|
|---------------------|-------------5----L----|-----------5--------|
|---------------------|-----------------------|--------------------|


    E  E  E  E  E  E  E  E     E  E  E  E  E  E  E  E   
|---------------------------|--1--------L--0--L--------|
|---------1--L--3--L--------|--------------------3--L--|
|*--0--L--0-----------0--L--|--------------------------|
|*-----2-----2-----0-----0--|--------3-----------0-----|
|---3-----------2-----------|--0--3-----3-----2-----2--|
|---------------------------|--------------3-----------|


   E  E  E  E  E  E  E  E     E  E  E  E  H           E  E  E  E  E  E  E  E   
|--------------------------|-----------------------|--------------0--L--------|
|--1--L--0--1--3--L--1--L--|--1--------L--0--------|--------3--L--------------|
|--------------------------|-----------------------|--2--L--2-----------2-----|
|--------------------0-----|--------0--------------|--0--3-----3-----2-----2--|
|-----0--3--0-----0-----0--|-----3-----3--2--------|--------------4-----------|
|--1-----------2-----------|--3-----------3--------|--------------------------|


   E  E  E  E  E  E  E  E     E  E  E  E  E  E  E  E   
|--3--------L--1--L--0--L--|-----------0--------------|
|--------------------------|--3--L--2-----3--L--------|
|--------2--------0--2--0--|--------2-----------2--L--|
|--0--3-----3--------------|--0--3-----3-----4-----4--|
|--------------4-----------|--------------3-----------|
|--------------------------|--------------------------|


   E  E  E  E  E  E  E  E     E  E  E  E  E  E  E  E   
|--------------------------|--------------------------|
|--1--------L--0--------L--|--------1--L--3--L--------|
|--------0-----------------|--0--L--0-----------0--L--|
|-----0-----0--------0-----|-----2-----2-----0-----0--|
|--2--------------2-----0--|--3-----------2-----------|
|--------------3-----------|--------------------------|


   E  E  E  E  E  E  E  E     E  E  E  E  E  E  E  E     E  E  E  E  H         
|--1--------L--0--L--------|--------------------------|-----------------------|
|--------------------3--L--|--1--L--0--1--3--L--1--L--|--1--------L--0--------|
|--------------------------|--------------------------|-----------------------|
|--------3-----------0-----|--------------------0-----|--------0--------------|
|--0--3-----3-----2-----2--|-----0--3--0-----0-----0--|-----3-----3--2--------|
|--------------3-----------|--1-----------2-----------|--3-----------3--------|


   E  E  E  E  E  E  E  E     E  E  E  E  E  E  E  E   
|--------------0--L--------|--3--------L--1--L--0--L--|
|--------3--L--------------|--------------------------|
|--2--L--2-----------2-----|--------2--------0--2--0--|
|--0--3-----3-----2-----2--|--0--3-----3--------------|
|--------------4-----------|--------------4-----------|
|--------------------------|--------------------------|


   E  E  E  E  E  E  E  E     E  E  E  E  Q    S S S S    H        Q    Q     
|-----------0--------------|---------------------0-1-3-|--5--------L----5----|
|--3--L--2-----3--L--------|--1--------L--0----3-------|---------------------|
|--------2-----------2--L--|--------0------------------|---------------------|
|--0--3-----3-----4-----4--|-----0-----0---------------|-----------0----L----|
|--------------3-----------|--2------------------------|--3--------2----L----|
|--------------------------|--------------3------------|--1--------3----L----|


   H        Q    Q       Q    E  E  Q    Q       Q    Q    Q    Q     
|--3--------L----0----|----------0------------|-------0----1----3----|
|---------------------|--6----6-----3----2----|--3-------------------|
|-----------0----L----|-------------0----L----|------------2----L----|
|--2--------2----L----|--3-------L------------|--3----L----3---------|
|--3--------3----L----|--5-------L--4----L----|--5----L----3----L----|
|---------------------|--6-------L--5----L----|----------------------|


   H.           Q       H.           Q       Q    E  E  Q    E  E   
|--6------------6----|--5-----------------|--3----3--4--3----3--4--|
|--------------------|---------------6----|------------------------|
|--3------------L----|--2------------L----|------------------------|
|--5------------L----|--3------------L----|--1-------L--3-------L--|
|--6------------L----|--5------------L----|--3-------L--3-------L--|
|--------------------|--------------------|-------------5-------L--|


   Q    Q    Q    Q     3x  Q    E  E  Q    E  E     Q    Q    Q    Q     
|--3----1----0----------||--3----3--4--3----3--4--|--3--------------1----|
|-----------------3-----||------------------------|-------6----4---------|
|------------0----L----*||------------------------|----------------------|
|--0----L----0----L----*||--1-------L--0-------L--|----------------------|
|--2----L----2----L-----||--3-------L--1-------L--|--3----L----1----L----|
|--3----L----3----L-----||------------------------|--4----L--------------|


   H        H           Q    Q    Q    Q       W                  
|--3--------L--------|-------3----5----7----|--8----------------||
|--------------------|-------0----0----6----|--8----------------||
|--------------------|----------------------|--9----------------||
|--0--------0--------|--0----L----0----L----|-------------------||
|--2--------2--------|--2----L----2----L----|-------------------||
|--3--------3--------|--3----L----3----L----|--8----------------||




                         Legend
	             ---------------
			W - whole
			H - half
			Q - quarter
			E - 8th
			S - 16th
			T - 32nd
			X - 64th
			. - note dotted
			|-n-|  - n-tuplets
			L - tied note
                        v - brush down
Login or Register to remove this ad.

1 comment on Main Theme

Correction

On your third repeat skip bars 35 and 36.