Ads

Lenna's Theme (Final Fantasy V) Guitar Tab

Submitted: Jun 28, 2010 by Daugreano

0
Download | Listen
Game: Final Fantasy V
Composer(s): Nobuo Uematsu
Style: Alternate picking, Transcription
Series: Final Fantasy

AutoScroll: Slow | Medium | Fast
Song:Lenna's Theme
Game: Final Fantasy V
Composer: Nobuo Uematsu
Tabbed by: Daugreano

Guitar: 

   Q    Q    Q    Q      E   E   H.       E   E   Q.    E   E   E     Q   H..
E|------3----1----0----|-----0----------|-----0---------------------|----------------|
B|-1-------------------|-3-------0------|-3-------0---------0---3---|-1--------------|
G|---------------------|----------------|---------------2-----------|-----2----------|
D|---------------------|----------------|---------------------------|----------------|
A|---------------------|----------------|---------------------------|----------------|
E|---------------------|----------------|---------------------------|----------------|

   E   E   Q.    E   E   E     W        E   E   Q.    E   E   E     H.     E   E
E|---------------------------|--------|---------------------------|----------------|
B|---------------------------|-0------|---------0-----------------|-2----------0---|
G|---------2-----------------|--------|---------------0-------0---|--------2-------|
D|-0---2---------2---0---2---|--------|-0---2-------------2-------|----------------|
A|---------------------------|--------|---------------------------|----------------|
E|---------------------------|--------|---------------------------|----------------|


Play the next part 3x...


   Q    Q    Q    Q      E   E   H.       E   E   Q.    E   E   E     E   H..
E|------3----1----0----|-----0----------|-----0---------------------|----------------|
B|-1-------------------|-3-------0------|-3-------0---------0---3---|-1--------------|
G|---------------------|----------------|---------------2-----------|-----2----------|
D|---------------------|----------------|---------------------------|----------------|
A|---------------------|----------------|---------------------------|----------------|
E|---------------------|----------------|---------------------------|----------------|

   E   E   Q.    E   E   E     W        E   E   Q.    E   E   E    
E|---------------------------|--------|---------------------------|
B|---------------------------|-0------|---------0-----------------|
G|---------2-----------------|--------|---------------0-------0---|
D|-0---2---------2---0---2---|--------|-0---2-------------2-------|
A|---------------------------|--------|---------------------------|
E|---------------------------|--------|---------------------------|

                 4x
   W        W     
E|--------|--------|
B|--------|--------|
G|-2------|-L------|
D|--------|--------|
A|--------|--------|
E|--------|--------|

Login or Register to remove this ad.