Ads

Fate In Haze (Final Fantasy V) Guitar Tab

Submitted: Aug 18, 2012 by JordanVS

5
Average: 5 (5 votes)
Download | Listen
Game: Final Fantasy V
Composer(s): Nobuo Uematsu
Style: Arrangement, Fingerstyle
Series: Final Fantasy

AutoScroll: Slow | Medium | Fast
Fate In Haze                                 
Final Fantasy V
Nobuo Uematsu
JordanVS


*Capo on the 1st fret

2/4
BPM=55


     |-3-| |-3-| |-3-| |-3-|    |-3-| |-3-| |-3-| |-3-|  
     S S S S S S S S S S S S    S S S S S S S S S S S S  
E||--------------------------|--------------1-----------|
B||------------0-1-----------|----------0-3---1---------|
G||----------0-----2---------|--------0---------2-------|
D||--------2---------3-------|------0-------------3-----|
A||------2-------------3-0---|----2-----------------3-0-|
E||--0-3-------------------1-|--3-----------------------|


  ^        ^           ^        ^                           
  |--3--|  |--3--|     |--3--|  |--3--|     |--3--|         
  E  E  E  E  E  E     E  E  E  E  E  E     E  E  E  E  E   
--------------------|-----------1--------|--0--------------|
--0-----0--1--------|--3-----3--1--1-----|-----------3--1--|
--0--0-----2--2-----|--4--4-----2-----2--|-----------0-----|
--2--------3-----3--|--5--------3--------|--------2--------|
--2--------3--------|--5-----------------|-----2-----------|
--0--------1--------|--3-----------------|--0--------------|


  |--3--|          |--3--|           |--3--|          |--3--|         
  E  E  E  Q       E  E  E  E  E     E  E  E  Q       E  E  E  E  E   
----------------|-----------------|----------------|-----------------|
--0-------------|--------------0--|--1-------------|-----------------|
-----------0----|--2--------2-----|-----------2----|--0--------0--2--|
--------2-------|--------3--------|--------3-------|--------2--------|
-----2----------|-----3-----------|-----3----------|-----2-----------|
--0-------------|--1--------------|--1-------------|--0--------------|


  |--3--|  |--3--|     |--3-|  |--3--|     |--3--|  |--3--|   
  E  E  E  E  E  E     Q    E  E  E  E     E  E  E  E  E  E   
--------------------|----------------1--|--------------------|
--0-----------------|-------------3-----|--3-----------------|
-----------0--------|----------2--------|-----2--------------|
--------2-----2--1--|--3----0-----------|--------3--0--0--1--|
-----2--------------|--5----------------|--------------------|
--0--------0--------|-------------------|--------------------|


  |--3--|           |--3--|  |--3--|     |--3--|         
  E  E  E  E  E     E  E  E  E  E  E     E  E  E  E  E   
--0--------------|--------------------|-----------------|
-----------3--1--|--0-----------------|--------------0--|
-----------0-----|-----------0--------|--2--------2-----|
--------2-----2--|--------2-----2-----|--------3-----3--|
-----2-----------|-----2-----------2--|-----3-----------|
--0--------------|--0-----------------|--1--------------|


  |--3--|  |--3--|     |--3--|           |--3--|  |--3--|   
  E  E  E  E  E  E     E  E  E  E  E     E  E  E  E  E  E   
--------------------|-----------------|--------------------|
--1-----------------|-----------------|--0-----------------|
-----------2--------|--0--------0--2--|-----------0--------|
--------3-----3-----|--------2--------|--------2-----2--1--|
-----3-----------3--|-----2--------2--|-----2--------------|
--1-----------------|--0--------------|--0--------0--------|


  |--3-|  |--3--|     |--3--|  |--3--|     |--3--|         
  Q    E  E  E  E     E  E  E  E  E  E     E  E  E  E  E   
----------------1--|--------------------|-----------------|
-------------3-----|--3-----------------|-----------------|
----------2--------|-----2--------------|--0--------2--0--|
--3----0-----------|--------3--0--0--1--|--------0--------|
--5----------------|--------------------|-----2--------2--|
-------------------|--------------------|--3--------3-----|


  |--3--|           |--3--|  |--3--|     |--3--|  |--3--|   
  E  E  E  E  E     E  E  E  E  E  E     E  E  E  E  E  E   
--5--------3-----|--1-----------------|--------0--------0--|
-----------0--3--|--------1--------3--|--------------------|
--------0-----0--|-----2--------2-----|-----2--------2-----|
-----0-----------|--3--------3--------|--3--------3--------|
-----------------|--------------------|--------------------|
--3--------------|--1-----------------|--1-----------------|


  |--3--|           |--3--|           |--3--|           |--3--|  |--3--|   
  E  E  E  E  E     E  E  E  E  E     E  E  E  E  E     E  E  E  E  E  E   
-----------------|--5--------3-----|--0--------------|-----------3--------|
-----------------|-----------0--3--|-----------3--1--|--3-----------------|
--0--------2--0--|--------0-----0--|--------2--------|-----------0--------|
--------0--------|-----0-----------|-----3-----3--0--|--------2-----2-----|
-----2--------2--|-----------------|--5--------------|-----2-----------2--|
--3--------3-----|--3--------------|-----------------|--0-----------------|


  |--3--|                 |--3--|     |--3--|           |--3--|  |--3--|   
  E  E  E  E  E     E  E  E  E  E     E  E  E  E  E     E  E  E  E  E  E   
--0--------------|-----0-----------|--0--------------|-----------3--------|
-----------3--1--|--3--------------|-----------3-----|--3-----------------|
-----------2-----|--------0--------|--------5-----5--|--------2-----------|
--------3-----3--|--------2--------|-----4-----4-----|-----3-----3--------|
-----3-----------|-----2-----2-----|--5-----------5--|--2-----------2-----|
--1--------------|--0-----------0--|-----------------|-----------------4--|


  |--3--|  |--3--|     |--3--|         
  E  E  E  E  E  E     E  E  E  Q      
--5--------------0--|--------0-------||
--------------0-----|-----2----------||
-----------2--------|--2--------2----||
--------2-----------|----------------||
--0--4--------------|--0-------------||
--------------------|----------------||




Duration Legend
---------------
W - whole
H - half
Q - quarter
E - 8th
S - 16th
. - note dotted
|-n-|  - n-tuplets


Tablature Legend
----------------
L - tied note
^ - brush up
v - brush down
Login or Register to remove this ad.

3 comments on Fate In Haze

Stuff like this is what makes

Stuff like this is what makes you one of my favorite tabbers. Great job!

Love this track, and nice

5

Love this track, and nice tab! It makes a solo possible without many musical compromises. Getting it to performance quality is another matter, but I might give it a go sometime.

Perfect !!!

5

i love this piece and your tab is the best i've found