Fate in Haze (Final Fantasy V) Guitar Tab

Submitted: Jun 05, 2011 by diralark

4
Average: 4 (1 vote)
Download | Listen
Game: Final Fantasy V
Composer(s): Nobuo Uematsu
Style: Arrangement, Fingerstyle
Series: Final Fantasy

AutoScroll: Slow | Medium | Fast
				Fate in Haze     from Final Fantasy V

Music by Nobuo Uematsu  >> Midi file arranged  by ?? >> tab by Diralark

Detune two chords of your Guitar, Tempo 117, let ring

                                                                                
       E  E  E  E  E  E     E  E  E  E  E  E     E  E  E  E  E  E     E  E   E     E   E  E      
D#||------------------3--|--4--1--------------|--------------3--6--|--9------------------------||
B ||------------0--3-----|--------1-----------|-----------3--------|-----8---------------------||
F#||*--------0-----------|-----------1--------|-----0--3-----------|--------10----------------*||
D ||*-----0--------------|--------------2-----|--0-----------------|--------------10----------*||
A ||---------------------|-----------------3--|--------------------|------------------10--7----||
E ||---7-----------------|--------------------|--------------------|---------------------------||


Segno                            III (4)                      idem                   --  
  E  E  E  E  E  E     E  E  E  E  E       E     E  E  E  E  E  E       E  E  E  E  E  E   
-----------------3--|----------------------3--|-----------------3----|-----------------3--|
--0--------0--3-----|-----------0--3----------|-----------0--3-------|-----------0--3-----|
--------0-----------|--3--------1-------------|--0-----0-------------|--------0-----------|
-----0--------------|-----0--4----------------|-----0----------------|-----0--------------|
--------------------|--2----------------------|--2-------------------|--2-----------------|
--7-----------------|-------------------------|----------------------|--------------------|


        I                                   I                    --                 
  E  E  E  E  E  E     E  E  E  E  E  E     E  E  E  E  E  E     E  E  E  E  E  E   
--------------1--4--|--------------1--4--|--------------1--4--|--------------1--4--|
-----------1--------|-----------1--------|-----------1--------|-----------1--------|
--------1-----------|--------1--0--------|--1-----1-----------|--------1-----------|
-----2--------------|-----2--------------|-----2--------------|-----2--------------|
--3-----------------|--3-----------------|--3-----------------|--3-----------------|
--------------------|--------------------|--------------------|--------------------|


  E  E  E  E  E  E     E  E  E  E  E  E     E  E  E  E  E  E     E  E  E  E  E  E   
-----------------3--|-----------------3--|-----------------3--|-----------------3--|
-----------0--3-----|-----------0--3-----|-----------0--3-----|-----------0--3-----|
--------0-----------|--------0-----------|--0-----0-----------|--------0-----------|
-----0--------------|-----0-----2--------|-----0--------------|-----0--------------|
--2-----------------|--2-----------------|--2-----------------|--2-----------------|
--------------------|--------------------|--------------------|--------------------|


    I                      I         Da Segno                                                      
    E  E  E  E  E  E   3x  E  E  E  E  E  E     E  E  E  E  E  E     E  E  E  E  E  E   
|---------------1--4---||--------------1--4--|-----------------3--|-----------------4--|
|------------1---------||-----------1--------|--------------3-----|-----------0--3-----|
|*--------1-----------*||--------1-----------|--------0--3--------|--------1-----------|
|*-----2--------------*||-----2--------------|--0-----------------|--2--0-----0--------|
|---3------------------||--3-----------------|--0--0--------------|--2-----------------|
|----------------------||--------------------|--------------------|--------------------|


                                              I                                         
  E  E  E  E  E  E     E  E  E  E  E  E       E  E  E  E  E  E   4x  E  E  E  E  E  E   
--1--------------3--|-----------------3--||------------------1---||-----------------3--|
--------------3-----|--3-----------3-----||---------------1------||--------------3-----|
--------0--3--------|--------0--3--------||*-----------1--------*||--------0--3--------|
-----0--------------|-----0--------------||*--------2-----------*||--0-----------------|
--0-----------------|--0-----------------||------3---------------||--0--0--------------|
--------------------|--------------------||---3------------------||--------------------|


  E  E  E  E  E  E     E  E  E  E  E  E     E  E  E  E  E  E       E  E  E  E  E  E   
-----------------4--|--1--------------3--|-----------------3--||------------------4--|
-----------0--3-----|--------------3-----|--3-----------3-----||---0--------0--3-----|
--------1-----------|--------0--3--------|--------0--3--------||*--------1-----------|
--2--0-----0--------|-----0--------------|-----0--------------||*-----0--------------|
--2-----------------|--0-----------------|--0-----------------||---2-----------------|
--------------------|--------------------|--------------------||---------------------|

                                          1._______________       2._______________
  E  E  E  E  E  E     E  E  E  E  E  E     E  E  E  E  E  E       E  E  E  E  E  E   
-----------------4--|-----------------3--|--------------3------||-----------------3--|
-----------0--3-----|--------------3-----|-----------3-----3---||--------------3-----|
--3-----1--1--------|--3--------3--------|--------0--3--------*||--------0--3--------|
-----0--------------|-----0--4-----------|-----0--------------*||--0-----------------|
--2-----------------|--0-----------------|--0------------------||--0--0--------------|
--------------------|--------------------|---------------------||--------------------|

                                                                          D.S. al Coda
  E  E  E  E  E  E     E  E  E  E  E  E     E  E  E  E  E  E     E  E  E  E  E  E   
--1--------------1--|-----------------1--|-----------------1--|-----------------1--|
--------------0-----|--------------0-----|--------------0-----|--------------0-----|
--------------------|--------------------|--------------------|--------------------|
-----------2--------|-----------2--------|-----------2--------|-----------2--------|
--------2-----------|--------2-----------|--------2-----------|--------2-----------|
--0--4--------------|--0--4--------------|--0--4--------------|--0--4--------------|


  E  E  E  E  E  E     E  E  E  E  E  E     E  E  E  E  E  E     E  E   E   E   E  E   
-----------------3--|--4--1--------------|--------------3--6--|--9--------------------|
-----------0--3-----|--------1-----------|-----------3--------|-----8-----------------|
--------0-----------|-----------1--------|-----0--3-----------|--------10-------------|
-----0--------------|--------------2-----|--0-----------------|------------10---------|
--2-----------------|-----------------3--|--------------------|----------------10--7--|
--------------------|--------------------|--------------------|-----------------------|

                                            rall............................. Tempo 40
  E  E  E  E  E  E     E  E  E  E  E  E     E  E  E  E  E  E     E  E   E   E  Q     
-----------------3--|--4--1--------------|--------------3--6--|--9------------------|
-----------0--3-----|--------1-----------|-----------3--------|-----8---------------|
--------0-----------|-----------1--------|-----0--3-----------|--------10-----------|
-----0--------------|--------------2-----|--0-----------------|------------10-------|
--------------------|-----------------3--|--------------------|---------------------|
--7-----------------|--------------------|--------------------|----------------8----|

  ^                               
  H.              Q    H          
---------------|----------------||
---------------|----------------||
--8------------|----------------||
---------------|----------------||
--7------------|----------------||
--7------------|--L-------------||

Legend
---------------
H - half
Q - quarter
E - 8th
S - 16th
. - note dotted
L - tied note
p - pull off
b - bend
Login or Register to remove this ad.