The Dragon Spreads Its Wings (Final Fantasy V) Bass Tab

Submitted: Mar 11, 2010 by auriplane (Last updated: Mar 11, 2010)

0
Download | Listen
Game: Final Fantasy V
Composer(s): Nobuo Uematsu
Style: Transcription
Series: Final Fantasy

This song is also called 大いなる翼を広がる

AutoScroll: Slow | Medium | Fast
     Final Fantasy V (SNES) - The Dragon Spreads Its Wings BASS TAB
                        Composed by Nobuo Uematsu

                 Tabbed by auriplane ([email protected])


There are two versions in this tab.  The first is for four-string, but
requires you to tune the bottom string down a full step to D.  Scroll
down for the five-string version, in standard tuning.




                           FOUR-STRING VERSION
                             (Drop D tuning)

G |----------------|----------------|----------------|----------------|  \
D |----------------|----------------|----------------|----------------|   \
A |----------------|----------------|----------------|----------------|    |
D |3-3-3-3-3-3-3-3-|3-3-3-3-3-3-2-2-|0-0-0-0-0-0-0-0-|0-0-0-0-0-0-0-0-|    |
                                                                           | x2
G |----------------|----------------|----------------|----------------|    |
D |----------------|----------------|----------------|----------------|    |
A |0-0-0-0-0-0-0-0-|0-0-0-0-0-0-0-0-|3-3-3-3-3-3-3-3-|3-3-3-3-3-3-3-3-|   /
D |----------------|----------------|----------------|----------------|  /

G |----------------|----------------|----------------|----------------|  \
D |----------------|----------------|----------------|----------------|   \  x2
A |----------------|----------------|----------------|3-3-3-3-3-3-3-3-|   /
D |5-5-5-5-5-5-5-5-|1-1-1-1-1-1-3-3-|5-5-5-5-5-5-5-5-|----------------|  /

G |----------------|----------------|----------------|----------------|
D |----------------|----------------|----------------|----------------|
A |0-0-0-0-0-0-0-0-|0-0-0-0-0-0-0-0-|5-5-5-5-5-5-5-5-|5-5-5-5-5-5-5-5-|
D |----------------|----------------|----------------|----------------|




                           FIVE-STRING VERSION
                            (Standard tuning)


G |----------------|----------------|----------------|----------------|  \
D |----------------|----------------|----------------|----------------|   \
A |----------------|----------------|----------------|----------------|    |
E |----------------|----------------|----------------|----------------|    |
B |6-6-6-6-6-6-6-6-|6-6-6-6-6-6-5-5-|3-3-3-3-3-3-3-3-|3-3-3-3-3-3-3-3-|    |
                                                                           | x2
G |----------------|----------------|----------------|----------------|    |
D |----------------|----------------|----------------|----------------|    |
A |----------------|----------------|3-3-3-3-3-3-3-3-|3-3-3-3-3-3-3-3-|    |
E |5-5-5-5-5-5-5-5-|5-5-5-5-5-5-5-5-|----------------|----------------|   /
B |----------------|----------------|----------------|----------------|  /

G |----------------|----------------|----------------|----------------|  \
D |----------------|----------------|----------------|----------------|   \
A |----------------|----------------|----------------|3-3-3-3-3-3-3-3-|    > x2
E |3-3-3-3-3-3-3-3-|----------------|3-3-3-3-3-3-3-3-|----------------|   /
B |----------------|4-4-4-4-4-4-6-6-|----------------|----------------|  /

G |----------------|----------------|----------------|----------------|
D |----------------|----------------|----------------|----------------|
A |----------------|----------------|5-5-5-5-5-5-5-5-|5-5-5-5-5-5-5-5-|
E |5-5-5-5-5-5-5-5-|5-5-5-5-5-5-5-5-|----------------|----------------|
B |----------------|----------------|----------------|----------------|


Login or Register to remove this ad.