Ads

The Decisive Battle (Final Fantasy V) Guitar Tab

Submitted: Feb 17, 2011 by BacardiBreezer (Last updated: Apr 27, 2011)

0
Download | Listen
Game: Final Fantasy V
Composer(s): Nobuo Uematsu
Style: Transcription
Series: Final Fantasy

Click here for a video example.

AutoScroll: Slow | Medium | Fast
Decisive Battle
Final Fantasy 5
Composer: Nobuo Uematsu
Tabbed by: Bacardibreezer
2/16/11

e|------------------| |-----------------|	|----------13-12-----------13-12-----15-14---18-17-----15-14---18-17---|
B|--10--------------| |--10-------------|       |--15-14-----------15-14-----------------------------------------------|
G|------8--10--9----| |-----8--10-9b10--|	|----------------------------------------------------------------------|
D|------------------| |-----------------|       |----------------------------------------------------------------------|
A|------------------| |-----------------|	|----------------------------------------------------------------------|
E|------------------| |-----------------|       |----------------------------------------------------------------------|

e|----------------------------------------------------------------------|
B|----------------------------------------------------------------------|
G|----------------------------------------------------------------------|
D|----------------------------------------------------------------------|
A|--9-9---9-9-9-9---8-8-8-8--12-12--12-12-12-12-------------------------|
E|------------------------------------------------13-13-13-13-13-13-12--|

e|--------------------------------------------------------------------------------------------------------------|
B|--------------------------------------------------------------------------------------------------------------|
G|--9-9--------------------------------------9-9----------------------------9-9---------------------------------|
D|-------8-8-8-8-8---8-8-8-8-8---8-8-8------------8-8-8---8-8-8---8-8-8----------8-8-8-8-8---8-8-8-8-8---8-8-8--|
A|--------------------------------------------------------------------------------------------------------------|
E|--------------------------------------------------------------------------------------------------------------|

e|----------------------------------------------------------------------|
B|-------------------------15--14----------17--15--14-------------------|
G|--9--11--12--16--15--------------16--12--------------15--16-----------|
D|---------------------16-----------------------------------------------|
A|----------------------------------------------------------------------|
E|----------------------------------------------------------------------|

e|-----------------------------------10-10-9-|
B|-------------------------10-10-9-----------|
G|---------------10-10-9---------------------|
D|-----10-10-9-------------------------------|
A|-10----------------------------------------|
E|-------------------------------------------|

e|-----------------------------------------14------------|
B|--------------14--13------17--16--14---------17--16----|
G|--11--13--14----------13--------------14---------------|
D|-------------------------------------------------------|
A|-------------------------------------------------------|
E|-------------------------------------------------------|

e|-----------------------------------------------------------------------------|
B|-----------12--11-------12-11-----------11-12----11-12-14--12-11--12---------|
G|--13-11-13--------11-13-----------11-13------------------------------13-13-11|
D|-----------------------------------------------------------------------------|
A|-----------------------------------------------------------------------------|
E|-----------------------------------------------------------------------------|

e|--------------------------------------------|
B|-----------12--11-------12-11-----------11--|
G|--13-11-13--------11-13-----------11-13-----|
D|--------------------------------------------|
A|--------------------------------------------|
E|--------------------------------------------|

e|---------------------------16-15-14-----------------------------|
B|--17-13-----------------13-----------15-------------------------|
G|--------14--------12-14-----------------15-14-----15-14-15-12---|
D|-----------15---------------------------------------------------|
A|----------------------------------------------------------------|
E|----------------------------------------------------------------|

e|-------------------------------------16--15--14---------14-16--12--14-|
B|--------13--17--13----------------13--------------15-17---------------|
G|--14-15------------14-------12-14-------------------------------------|
D|----------------------15----------------------------------------------|
A|----------------------------------------------------------------------|
E|----------------------------------------------------------------------|

e|--------------------------------------------------------------------------------|
B|--------------------------------------------------------------------------------|
G|--9--10--11---10--14--13---------11--10------10--11--10--14--13----------11-----|
D|---------------------------11-12---------9-----------------------11--12---------|
A|--------------------------------------------------------------------------------|
E|--------------------------------------------------------------------------------| x2

e|--------------13-----14-14-14-14-13-17----16-16-16-16-------14-13-----|
B|--12-12-12-12-----------------------------------------14-15-----------|
G|----------------------------------------------------------------------|
D|----------------------------------------------------------------------|
A|----------------------------------------------------------------------|
E|----------------------------------------------------------------------| x2

e|--------------------------|
B|--------------------------|
G|--------------------------|
D|--------------------------|
A|--10--9--8------8--7--6---|
E|--------------------------|
Login or Register to remove this ad.