Deception / Requiem / Good Night Medley (Final Fantasy V) Guitar Tab

Submitted: Jun 12, 2015 by JordanVS

0
Download | Listen
Game: Final Fantasy V
Composer(s): Nobuo Uematsu
Style: Arrangement, Fingerstyle
Series: Final Fantasy

AutoScroll: Slow | Medium | Fast
Deception/Requiem/Good Night                                               
Medley
Final Fantasy V
Nobuo Uematsu  
JordanVS

  -Deception
   T:70
     E  E  E  E  E  E  E  E     E  E  Q    E  E  Q       E  E  E  E  E  E  E  E     E  E  Q    E  E  Q     
E||--0--------------------2--|--0---------------------|--0-----------------------|------------------------|
B||--------1-----0-----0-----|--------1----------3----|--------1-----0--------3--|--1-----1----------3----|
G||--------1--2--------------|-----0-------5----------|--------1--2--------4-----|-----0------------------|
D||-----2-----------1--------|----------------4-------|-----2-----------1--------|----------------4-------|
A||--0-----------0-----------|--0----------0----------|--0-----------0-----------|--0----------0----------|
E||--------------------------|------------------------|--------------------------|------------------------|


  E  E  E  E  E  E  E  E     E  E  Q    E  E  E  E     E  E  E  E     W                   E  E  E  E   
--0--------------------2--|--0----------------------|--0-----3-----|--2----------------|--3-----6--3--|
--------1-----0-----0-----|--------1----------3--3--|-----------1--|--1----------------|--------3-----|
--------1--2--------------|-----0-------5-----5-----|--------0-----|--2----------------|-----3--------|
-----2-----------1--------|----------------4--------|-----2--------|-------------------|--5-----------|
--0-----------0-----------|--0----------0-----------|--3-----------|-------------------|--------------|
--------------------------|-------------------------|--------------|-------------------|--------------|

                   -Requiem
                    T:55
  W                   H        Q     Q        H         Q    Q       Q    Q    Q    Q       W                 
--5----------------|--8--------7----12----|------------------8----|-----------------1----|--0----------------|
--4----------------|--5--------5----------|--10---------8---------|--8--------------0----|--0----------------|
--5----------------|--5--------5----------|---9---------7---------|--5----4----2---------|--1----------------|
-------------------|--7--------5----------|--10--------10---------|--0---------1---------|--2----------------|
-------------------|----------------------|---8---------7---------|----------------------|-------------------|
-------------------|----------------------|-----------------------|----------------------|-------------------|


  H        H           W                   H        H           H        H           W                 
--L-----------------|--0----------------|-----------0--------|--------------------|-------------------|
--L-----------------|-------------------|--3-----------------|--3-----------------|--L----------------|
--L-----------------|--3----------------|--2--------3--------|--2-----------------|--L----------------|
--L-----------------|--5----------------|--3-----------------|--5--------3--------|--4----------------|
--------------------|--4----------------|--1-----------------|--5-----------------|--L----------------|
--------------------|-------------------|-----------3--------|--------------------|-------------------|

-Good Night!
 T:75

                                                 ^                  
  H        E  E  E  E     Q    Q    Q    Q       W                  
-----------------------|--0-------------------|-------------------||
--------------0--1--3--|-------1----4----0----|--3----------------||
-----------2-----------|--2---------1---------|--4----------------||
-----------------------|--3---------2---------|--2----------------||
-----------------------|----------------------|--3----------------||
-----------------------|----------------------|-------------------||




Duration Legend
---------------
W - whole
H - half
Q - quarter
E - 8th
S - 16th
T - 32nd
X - 64th
. - note dotted
|-n-|  - n-tuplets


Tablature Legend
----------------
L - tied note
^ - brush up
v - brush down
Login or Register to remove this ad.