Ads

Deception (Final Fantasy V) Guitar Tab

Submitted: Jan 19, 2015 by Exdeath

5
Average: 5 (3 votes)
Download | Listen
Game: Final Fantasy V
Composer(s): Nobuo Uematsu
Style: Arrangement, Fingerstyle
Series: Final Fantasy

This song is also called Bewitched

AutoScroll: Slow | Medium | Fast
  Deception                                     

                         E  E  E  E  E  E  E  E     E  E  Q    E  E  Q     
E||-------------------|--0--L-----------------2--|--0-----L---------------|
B||-------------------|--------1-----0-----L-----|-------------------3----|
G||-------------------|--------1--2--------4-----|--------5----5-----L----|
D||-------------------|-----2-----------1--------|-----5----------4-------|
A||-------------------|--0-----------0-----------|--0----------0----------|
E||-------------------|--------------------------|------------------------|


  E  E  E  E  E  E  E  E     E  E  Q    E  E  Q       E  E  E  E  E  E  E  E   
--0--L--------------------|------------------------|--0--L-----------------2--|
--------1-----0-----L--3--|-------------------3----|--------1-----0-----L-----|
--------1--2--------4-----|--5--L--5-------L-------|--------1--2--------4-----|
-----2-----------1--------|-----5----------4-------|-----2-----------1--------|
--0-----------0-----------|--0----------0----------|--0-----------0-----------|
--------------------------|------------------------|--------------------------|


  E  E  Q    E  E  E  E     E  E  E  E     W                   E  E  E  E   
--0-----L----------------|--0--L--3--L--|--2----------------|--3--L--6--L--|
-------------------3--3--|-----------1--|--1----------------|--------------|
--------5----5--L--5-----|--------0-----|--2----------------|-----------0--|
-----5----------4--------|-----2--------|-------------------|--------0-----|
--0----------0-----------|--3-----------|--0----------------|-----1--------|
-------------------------|--------------|-------------------|--3-----------|


  W                   E  E  E  E  E  E  E  E     E  E  Q    E  E  Q     
--5----------------|--0--L-----------------2--|--0-----L---------------|
-------------------|--------1-----0-----L-----|-------------------3----|
--5----------------|--------1--2--------4-----|--------5----5-----L----|
--7----------------|-----2-----------1--------|-----5----------4-------|
--6----------------|--0-----------0-----------|--0----------0----------|
-------------------|--------------------------|------------------------|


  E  E  E  E  E  E  E  E     E  E  Q    E  E  Q       E  E  E  E  E  E  E  E   
--0--L--------------------|------------------------|--0--L-----------------2--|
--------1-----0-----L--3--|-------------------3----|--------1-----0-----L-----|
--------1--2--------4-----|--5--L--5-------L-------|--------1--2--------4-----|
-----2-----------1--------|-----5----------4-------|-----2-----------1--------|
--0-----------0-----------|--0----------0----------|--0-----------0-----------|
--------------------------|------------------------|--------------------------|


  E  E  Q    E  E  E  E     E  E  E  E     W                   E  E  E  E   
--0-----L----------------|--0--L--3--L--|--2----------------|--3--L--6--L--|
-------------------3--3--|-----------1--|--1----------------|--------------|
--------5----5--L--5-----|--------0-----|-------------------|-----------0--|
-----5----------4--------|-----2--------|-------------------|--------0-----|
--0----------0-----------|--3-----------|--0----------------|-----1--------|
-------------------------|--------------|-------------------|--3-----------|


  H.           Q       W                                      
--5------------3----|--3----------------|-------------------||
--------------------|--3----------------|-------------------||
--5------------5----|--3----------------|-------------------||
--7------------3----|--5----------------|-------------------||
--6-----------------|-------------------|-------------------||
--------------------|-------------------|-------------------||
Login or Register to remove this ad.

1 comment on Deception

GOOD

5

Perfect i like this