Beyond the Deep Blue Sea (Final Fantasy V) Guitar Tab

Submitted: Mar 22, 2013 by JordanVS

5
Average: 5 (4 votes)
Download | Listen
Game: Final Fantasy V
Composer(s): Nobuo Uematsu
Style: Arrangement, Fingerstyle, Natural harmonics
Series: Final Fantasy

AutoScroll: Slow | Medium | Fast
Beyond the Deep Blue Sea          
Underwater Theme                    
Final Fantasy V
Nobuo Uematsu
JordanVS



                           ^                                       
      E  E  E  E  E  E     E  E  E  E  E  E     E  E  E  E  E  E   
E||------------4--3--1--|--------------------|--------------------|
B||---3--1--3-----------|--1-----------------|--------------3--1--|
G||*--1-----------------|--1-----------------|--------------1-----|
D||*--------------------|--3-----------------|--1-----------------|
A||---------------------|-----------------3--|-----3--------------|
E||---1--1--1--1--1--1--|--1--1--1--1--4-----|--------4--1--1--1--|


                       ^                               -Da Coda        
  E  E  E  E  E  E     E  E  E  E  E  E     E  E  E  E  E  E   
-----4--3--1--------|--------------------|--------------------|
--3-----------1--4--|--3-----------------|--------------------|
--------------------|--0-----------------|--0-----------2-----|
--------------------|--0-----------------|--0-----------------|
--------------------|-----------------2--|-----2--------------|
--1--1--1--1--1--1--|--0--0--0--0--3-----|--------3--0--0--0--|


1.					  2.	

  E  E  E  E  E  E     E  E  E  E  E  E       E  E  E  E  E  E   
--------------------|---------------------||--------------------|
--0-----------------|--L--------------0---||--0-----L-----------|
--0-----------------|--L-----------0-----*||--0-----L--------0--|
-----------0--------|-----------0--------*||--------------2-----|
--------2-----2-----|--------2------------||--------2--4--------|
--0--3-----------3--|--0--3---------------||--0--3--------------|


  E  E  E  E  E  E       E  E  E  E  E  E     E  E  E  E  E  E   
-----------------0--||---------------------|--------------------|
--L--------0--2-----||---0-----0--3--------|--------------0-----|
--L-----0-----------||*-----2-----------2--|--5--2-----------2--|
-----2--------------||*--0--0--0--0--3-----|--------3--0--0--0--|
--4-----------------||---------------------|--------------------|
--------------------||---------------------|--------------------|


                                            ^                  
  E  E  E  E  E  E     E  E  E  E  E  E     E  E  E  E  E  E   
-----0-----L--------|--L-----------------|--------------------|
--0--0-----L--------|--L-----------------|--0--------3-----1--|
--0-----------------|--------0-----2-----|--0--------0-----0--|
-----------------0--|--3--0--0-----0-----|--2-----------------|
--------------2-----|--------2-----------|--3--3--3--3--3--3--|
--3--3--3--3--------|-----------3--3--3--|--------------------|


                    1.
  ^                                                              
  E  E  E  E  E  E     E  E  E  E  E  E     E  E  E  E  E  E     
--------------------|--------------------|---------------------||
--0-----------------|--0-----------------|--L------------------||
--0--------0-----2--|-----------0--------|-----------0--------*||
--2-----------------|--------2-----2-----|--------2-----2-----*||
--3--3--3--3--3--3--|-----3-----------3--|-----4-----------4---||
--------------------|--5-----------------|--5------------------||

2.                      -D.C. al coda    *Coda

  E  E  E  E  E  E     E  E  E  E  E  E     E  E  E  E  E  E   
--------------------|-----------------0--|--------------------|
--0-----------------|--L-----------2-----|--0-----L--------0--|
-----------0--------|-----------2--------|--0-----L-----0-----|
--------2-----2-----|--------2-----------|-----------0--------|
-----3-----------3--|-----4--------------|--------2-----------|
--5-----------------|--5-----------------|--0--3--------------|


                         NH   NH    NH   NH                    NH   NH  
  E  E  E  E  Q          E    E     E    Q.        H           E    E   
--------------0----|----------------------------|----------------------|
--------0--3-------|--<>12-------<>12-----------|-----------<>12-------|
-----0-------------|-------------------<>7------|--L-------------------|
--2----------------|--------<>7-----------------|-----------------<>7--|
-------------------|----------------------------|----------------------|
-------------------|----------------------------|----------------------|


     NH    NH                     NH     NH         NH       NH      
     E     Q    Q.        Q       Q      Q          Q.       Q.      
--------<>12----L------|--L-------------------|---------------------|
--<>12-----------------|----------------------|--<>12---------------|
-----------------------|-------<>12-----------|------------<>7------|
-----------------------|---------------<>7----|---------------------|
-----------------------|----------------------|---------------------|
-----------------------|----------------------|---------------------|


    NH                             
    H.              H.             
-----------------|---------------||
-----------------|---------------||
--<>5------------|--L------------||
-----------------|---------------||
-----------------|---------------||
-----------------|---------------||




Duration Legend
---------------
H - half
Q - quarter
E - 8th
. - note dotted


Tablature Legend
----------------
L - tied note
NH - natural harmonic
^ - brush up
v - brush down
Login or Register to remove this ad.