Battle With Gilgamesh (Final Fantasy V) Guitar Tab

Submitted: Dec 18, 2011 by hashel (Last updated: Dec 20, 2011)

5
Average: 5 (1 vote)
Download | Listen
Game: Final Fantasy V
Composer(s): Nobuo Uematsu
Style: 2 or more instruments, Alternate picking, Arrangement
Series: Final Fantasy

This song is also called Clash on the Big Bridge

AutoScroll: Slow | Medium | Fast
Title: Battle With Gilgamesh
SubTitle: Clash On The Big Bridge
Album: FFV OST
Music: Nobuo Uematsu
Copyright: Squaresoft
Tabber: Hashel05
Tempo = 175

The bass part in the GP5 file is from Auriplane's tab =)


Lead

E |-------|-------|-------|-------|-------|-------|-------|-------|-------|
B |-------|-------|-------|-------|-------|-------|-------|-------|-------|
G |-------|-------|-------|-------|-------|-------|-------|-------|-------|
D |-------|-------|-------|-------|-------|-------|-------|-------|-------|
A |-------|-------|-------|-------|-------|-------|-------|-------|-------|
E |-------|-------|-------|-------|-------|-------|-------|-------|-------|


-------------------------------|-------|-------|----------------------|
-------------------------------|-------|-------|----------------------|
-----5--4-----4--3-----3--2----|-------|-------|-----5--4-----4--3----|
-------------------------------|-------|-------|----------------------|
-------------------------------|-------|-------|----------------------|
-------------------------------|-------|-------|----------------------|


----------------------|----------------------------|
----------------------|----------------------------|
-----3--2-----2--1----|----------------------------|
----------------------|----------------------------|
----------------------|--3--3-----3--6--3-----3----|
----------------------|----------------------------|


----------------------------------------------------|
----------------------------------------------------|
----------------------------------------------------|
--------------3-----3h-4h-3-------------------------|
--6-----3-----------------------6-----3-------------|
--------------------------------------------6-------|


----------------------------|----||---------------------------|
----------------------------|----||-------9-----11-9----------|
----------------------------|----||o10-12----10-------12-10---|
----------------------------|----||o--------------------------|
--3--3-----3--6--5--3-------|----||---------------------------|
----------------------------|----||---------------------------|


----------------------------|----------------------------|
--13----14----13-9-----9----|--11----13----11------------|
-----10----10---------------|-----9-----9-----12----12---|
----------------------------|----------------------------|
----------------------------|----------------------------|
----------------------------|----------------------------|


----------------------------|----------------------------|
--9-----------9--11-9-------|--------9-----11-9----------|
-----12-10-12----------12---|--10-12----10-------12-10---|
----------------------------|----------------------------|
----------------------------|----------------------------|
----------------------------|----------------------------|


----------------------------|----------------------------|
--13----14----13-9-----9----|--11----13----11------------|
-----10----10---------------|-----9-----9-----12----12---|
----------------------------|----------------------------|
----------------------------|----------------------------|
----------------------------|----------------------------|


--------------11------------|-------|--------------------15------|--13---|
-----11-13-14----14-13-14---|--16---|--------13-15-16------------|-------|
--13------------------------|-------|----------------------------|-------|
----------------------------|-------|----------------------------|-------|
----------------------------|-------|----------------------------|-------|
----------------------------|-------|----------------------------|-------|


-------|----------------------------|----------------------------|
-------|--11------------------------|----------------------------|
-------|-----------10-------8-------|--7--------8--------7-------|
-------|----------------------------|----------------------------|
-------|----------------------------|----------------------------|
-------|----------------------------|----------------------------|


----------------------------|----------------------------|
----------------------------|-----------13-------15------|
-----------10-------12------|--14------------------------|
--10------------------------|----------------------------|
----------------------------|----------------------------|
----------------------------|----------------------------|


----------------------------|----------------|----------------------------|
--16----15-13----15-16------|--------16-18---|--20----18-16----18-20------|
----------------------------|----------------|----------------------------|
----------------------------|----------------|----------------------------|
----------------------------|----------------|----------------------------|
----------------------------|----------------|----------------------------|


-------|--17----14------------------|--------------13------------|-------|
-------|-----------16----13-15-16---|-----16----13-------16------|--15---|
-------|--------------14------------|----------------------------|-------|
-------|----------------------------|----------------------------|-------|
-------|----------------------------|----------------------------|-------|
-------|----------------------------|----------------------------|-------|


----------------------------|
--------------20-18-15------|
--------16-19----------16---|
-----17---------------------|
----------------------------|
----------------------------|


--16----------15----------14----------15------------|
----------------------------------------------------|
----------------------------------------------------|
----------------------------------------------------|
----------------------------------------------------|
----------------------------------------------------|


--16----------15----------14----------15------------|
----------------------------------------------------|
----------------------------------------------------|
----------------------------------------------------|
----------------------------------------------------|
----------------------------------------------------|


----------------------------|----------------------------|
----------------------------|--------------------7-------|
--------------------7-------|--5-----7--9L-9-------------|
--5-----7--8L-8-------------|----------------------------|
----------------------------|----------------------------|
----------------------------|----------------------------|


----------------------------|
----------------------------|
----------------------------|
--5--5-----5--8--5-----5----|
----------------------------|
----------------------------|


----------------------------------------------------|
----------------------------------------------------|
--------------5-----5h-6h-5-------------------------|
--8-----5-----------------------8-----5-------------|
--------------------------------------------8-------|
----------------------------------------------------|


----------------------------|----------------|----------------------------|
--10-------9L-9-----8-------|-----10-9--8----|----------------------------|
----------------------------|----------------|--5h-7h-5h-7h-5h-7h-5h-7----|
----------------------------|----------------|----------------------------|
----------------------------|----------------|----------------------------|
----------------------------|----------------|----------------------------|


----------------------------|----------------------------|
----------------------------|----------------------------|
--4h-6h-4h-6h-4h-6h-4h-6----|--5h-7h-5h-7h-5h-7h-5h-7----|
----------------------------|----------------------------|
----------------------------|----------------------------|
----------------------------|----------------------------|


----------------------------|----------------------------|
----------------------------|----------------------------|
--4h-6h-4h-6h-4h-6h-4h-6----|----------------------------|
----------------------------|----------------------------|
----------------------------|--3--3-----3--6--3-----3----|
----------------------------|----------------------------|


---------------------------------------------------||
---------------------------------------------------||
--------------------------------------------------o||
--------------3-----3h-4h-3-----------------------o||
--6-----3-----------------------6-----3------------||
--------------------------------------------6------||


----------------------------|----||
----------------------------|----||
----------------------------|----||
----------------------------|----||
--3--3-----3--6--5--3-------|----||
----------------------------|----||



Rhythm

E |-------|-------|-------|-------|-------|
B |-------|-------|-------|-------|-------|
G |-------|--10---|--8----|--6----|--8----|
D |-------|--10---|--8----|--6----|--8----|
A |-------|--8----|--6----|--4----|--6----|
E |-------|-------|-------|-------|-------|


----------------------------------------|
----------------------------------------|
----------------------------------------|
--3-----------------------3--------3L---|
-----3-----------------------3----------|
--------4--1-----------1--------4-------|


----------------------------------------|
----------------------------------------|
----------------------------------------|
--3-----------3-------------------------|
-----------------3----------------------|
--------------------4--1L----------1----|


----------------------------------------|
----------------------------------------|
--------6-----------8-------------------|
-----6-----6-----8-----8--3-------------|
--4-----------6--------------3----------|
--------------------------------4--1L---|


----------------------------------------|-------------------------------|
----------------------------------------|-------------------------------|
----------------------------------------|-------------------------------|
--------------3--------3L----------3----|-----5--4-----4--3-----3--2----|
-----------------3----------------------|-----3--2-----2--1-----1--0----|
--1--------1--------4-------------------|-------------------------------|


----------------------------------------|
----------------------------------------|
----------------------------------------|
--3-----------------------3--------3L---|
-----3-----------------------3----------|
--------4--1-----------1--------4-------|


----------------------------------------|----------------------|
----------------------------------------|----------------------|
----------------------------------------|----------------------|
--3-----------3-------------------------|-----5--4-----4--3----|
-----------------3----------------------|-----3--2-----2--1----|
--------------------4--1L----------1----|----------------------|


----------------------|----------------------------|
----------------------|----------------------------|
----------------------|----------------------------|
-----3--2-------------|----------------------------|
-----1--0-----7--6----|----------------------------|
--------------5--4----|--1--1-----1--4--1-----1----|


----------------------------------------------------|
----------------------------------------------------|
----------------------------------------------------|
----------------------------------------------------|
--------------1-----1h-2h-1-------------------------|
--4-----1-----------------------4-----3-----0-------|


----------------------------|-------||---------------------------|
----------------------------|-------||---------------------------|
----------------------------|-------||o--------------------------|
----------------------------|-------||o--------------------------|
----------------------------|-------||-3-------------------------|
--1--1-----1--4--1--1-------|-------||-1-----1M-1M-1M-1M-1M-1M---|


----------------------------|----------------------------|
----------------------------|----------------------------|
----------------------------|----------------------------|
----------------------------|--5-------------------------|
----------------------------|--3-----3M-3M-3M-3M-3M-3M---|
--1M-1M----1M-1M-1M-1M-1M---|----------------------------|


----------------------------|----------------------------|
----------------------------|----------------------------|
--------6-----------8-------|----------------------------|
-----6-----6-----8-----8----|----------------------------|
--4-----------6-------------|--3-------------------------|
----------------------------|--1-----1M-1M-1M-1M-1M-1M---|


----------------------------|----------------------------|----------------|
----------------------------|----------------------------|----------------|
----------------------------|----------------------------|----------------|
----------------------------|--5-------------------------|--6--6--8--8----|
----------------------------|--3-----3M-3M-3M-3M-3M-3M---|--4--4--6--6----|
--1M-1M----1M-1M-1M-1M-1M---|----------------------------|----------------|


----------------------------|-------|----------------------------|----------|
----------------------------|-------|----------------------------|----------|
----------------------------|-------|----------------------------|----------|
--5--------5L-5L------------|--5----|----------------------------|----------|
--3--------3L-3L------------|--3----|--5--------5L-5L------------|--5--17s--|
----------------------------|-------|--3--------3L-3L------------|--3--15s--|


----------------------------|----------------------------|
----------------------------|----------------------------|
----------------------------|----------------------------|
----------------------------|----------------------------|
--8--------8L-8-------------|--8--------8L-8-------------|
--6--------6L-6-------------|--6--------6L-6-------------|


----------------------------|----------------|----------------------------|
----------------------------|----------------|----------------------------|
----------------------------|----------------|----------------------------|
----------------------------|----------------|----------------------------|
--3--------3L-3L------------|--3-----3--5----|--6--------6L-6--------6L---|
--1--------1L-1L------------|--1-----1--3----|--4--------4L-4--------4L---|


----------------|----------------------------|----------------------------|
----------------|----------------------------|----------------------------|
----------------|----------------------------|----------------------------|
-----------3----|--5--------5L-5--------5L---|--5-----------5-----x--5----|
--6-----6--1----|--3--------3L-3--------3L---|--3-----------3-----x--3----|
--4-----4-------|----------------------------|----------------------------|


----------------------------|----------------------------|-------|----|
----------------------------|----------------------------|-------|----|
----------------------------|----------------------------|-------|----|
--7-----4-------------------|--------------3-------------|-------|----|
-----------6-----3--5--6----|-----6-----3--------6-------|--5----|----|
--------------5-------------|----------------------------|-------|----|


----------------|----------------|----------------------------|
----------------|----------------|----------------------------|
----------------|----------------|----------------------------|
-----5-----5----|-----5-----5----|--------------------5-------|
-----5-----5----|-----5-----5----|--3-----5--6L-6-------------|
-----3-----3----|-----3-----3----|----------------------------|


----------------------------|----------------------------|
----------------------------|----------------------------|
--------------------4-------|----------------------------|
--3-----5--7L-7-------------|----------------------------|
----------------------------|--3--3-----3--6--3-----3----|
----------------------------|----------------------------|


----------------------------------------------------|
----------------------------------------------------|
----------------------------------------------------|
--------------3-----3h-4h-3-------------------------|
--6-----3-----------------------6-----3-----1-------|
----------------------------------------------------|


----------------------------|----------------|-------|-------|-------|-------|
----------------------------|----------------|-------|-------|-------|-------|
--8--------7L-7-----6-------|-----8--7--6----|--5----|--4----|--5----|--4----|
--7--------6L-6-----5-------|-----7--6--5----|--5----|--4----|--5----|--4----|
----------------------------|----------------|--3----|--2----|--3----|--2----|
----------------------------|----------------|-------|-------|-------|-------|


----------------------------|
----------------------------|
----------------------------|
----------------------------|
----------------------------|
--1--1-----1--4--1-----1----|


---------------------------------------------------||
---------------------------------------------------||
--------------------------------------------------o||
--------------------------------------------------o||
--------------1-----1h-2h-1------------------------||
--4-----1-----------------------4-----3-----0------||


----------------------------|----||
----------------------------|----||
----------------------------|----||
----------------------------|----||
----------------------------|----||
--1--1-----1--4--1--1-------|----||
Login or Register to remove this ad.

1 comment on Battle With Gilgamesh

sounds awesome.

5

sounds awesome.