Ancient Library (Final Fantasy V) Bass Tab

Submitted: Jul 22, 2009 by auriplane (Last updated: Jan 13, 2011)

0
Download | Listen
Game: Final Fantasy V
Composer(s): Nobuo Uematsu
Style: Transcription
Series: Final Fantasy

AutoScroll: Slow | Medium | Fast
            Final Fantasy V (SNES) - Ancient Library BASS TAB
                          Song by Nobuo Uematsu

                 Tabbed by auriplane ([email protected])


Four-string bass, standard tuning.  

    Rest for two measures at the beginning.

G |----------------|
D |----------------|
A |3-3-3-3-3-3-3-3-| x15
E |----------------|

G |----------------|
D |----------------|
A |3-3-3-3-3-3-3-1-|
E |----------------|

G |----------------|----------------|----------------|----------------|
D |----------------|----------------|----------------|----------------|
A |--------1-----1-|2-----2-3---1---|--------1-----1-|2-----3-5-------|
E |4-----4---------|----------------|4-----4---------|------------3---|

G |----------------|----------------|
D |----------------|----------------|
A |3-3-3-3-3-3-3-3-|3-3-3-3-3-3-3-3-|
E |----------------|----------------|

Login or Register to remove this ad.