Ahead On Our Way (Final Fantasy V) Guitar Tab

Submitted: Jun 28, 2010 by Daugreano

0
Download | Listen
Game: Final Fantasy V
Composer(s): Nobuo Uematsu
Style: Alternate picking, Transcription
Series: Final Fantasy

This song is also called Main Theme of Final Fantasy V

AutoScroll: Slow | Medium | Fast
Song: Ahead On Our Way
Game: Final Fantasy V
Composer: Nobuo Uematsu
Tabbed by: Daugreano

Guitar:

   H     Q    Q      H.     Q      W        H     Q    Q      H     H       H.     Q
E|-----------------|-------------|--------|-----------------|-------------|-------------|
B|-----------------|-------------|--------|-----------------|-------1-----|-------------|
G|-0---------------|--------2----|-0------|-----------------|-0-----------|-2-----------|
D|-----------------|-0-----------|--------|-1-----1----3----|-------------|--------3----|
A|-------2----3----|-------------|--------|-----------------|-------------|-------------|
E|-----------------|-------------|--------|-----------------|-------------|-------------|

   H     H       W        H     Q    Q      H.     Q      W        H     Q    Q
E|-------------|--------|-----------------|-------------|--------|-----------------|
B|-------3-----|--------|-----------------|-------------|--------|-----------------|
G|-0-----------|-2------|-0---------------|--------2----|-0------|-----------------|
D|-------------|--------|-----------------|-0-----------|--------|-1-----1----3----|
A|-------------|--------|-------2----3----|-------------|--------|-----------------|
E|-------------|--------|-----------------|-------------|--------|-----------------|

   H     H       H.     Q      W        W        H     H       H     Q    Q      Q    Q    H
E|-------------|-------------|--------|--------|-------------|-----------------|-----------------|
B|-------------|-------------|--------|--------|-3-----------|-6-----4----3----|-1----3----------|
G|-0-----3-----|-2-----------|-0------|--------|-------0-----|-----------------|-----------2-----|
D|-------------|--------3----|--------|--------|-------------|-----------------|-----------------|
A|-------------|-------------|--------|--------|-------------|-----------------|-----------------|
E|-------------|-------------|--------|--------|-------------|-----------------|-----------------|

   W        Q    Q    H       Q    Q    Q    Q      Q    H.       Q    Q    Q    Q
E|--------|-----------------|---------------------|-------------|---------------------|
B|--------|-1----3----------|----------------1----|-------------|---------------------|
G|--------|-----------2-----|------0----2---------|-3----0------|------0----2----3----|
D|--------|-----------------|---------------------|-------------|---------------------|
A|--------|-----------------|---------------------|-------------|---------------------|
E|--------|-----------------|---------------------|-------------|---------------------|

   H     H       H     Q    Q      Q    Q    H       W        H     H       Q    Q    Q    Q
E|-------------|-----------------|-----------------|--------|-------------|---------------------|
B|-3-----------|-6-----4----3----|-1----3----------|--------|-1-----------|-8----6----4----6----|
G|-------0-----|-----------------|-----------2-----|--------|-------------|---------------------|
D|-------------|-----------------|-----------------|--------|-------3-----|---------------------|
A|-------------|-----------------|-----------------|--------|-------------|---------------------|
E|-------------|-----------------|-----------------|--------|-------------|---------------------|

   W        W        H.     Q      H     H       Q    Q    H       H     Q    Q
E|--------|--------|-------------|-------------|-----------------|-----------------|
B|-3------|--------|-3------1----|-------------|------3----1-----|-----------------|
G|--------|--------|-------------|-3-----0-----|-----------------|-------3---------|
D|--------|--------|-------------|-------------|-4---------------|------------4----|
A|--------|--------|-------------|-------------|-----------------|-----------------|
E|--------|--------|-------------|-------------|-----------------|-----------------|

   W
E|--------|
B|--------|
G|-3------|
D|--------|
A|--------|
E|--------|

Then Repeat...

Login or Register to remove this ad.