A New World (Final Fantasy V) Bass Tab

Submitted: Aug 02, 2009 by auriplane (Last updated: Aug 26, 2014)

0
Download | Listen
Game: Final Fantasy V
Composer(s): Nobuo Uematsu
Style: Transcription
Series: Final Fantasy

This song is also called World Three

AutoScroll: Slow | Medium | Fast
                 Final Fantasy V - A New World BASS TAB
                          Song by Nobuo Uematsu

                 Tabbed by auriplane ([email protected])


Four-string bass, standard tuning.

    Intro

G |----------------|----------------|
D |----------------|----------------|
A |----------------|----------------|
E |5-5-------------|5-5-------------|

    Part A

G |----------------|----------------|----------------|----------------|
D |----------------|----------------|----------------|------6---5-3---|
A |3-3-------------|3-3-------------|------------6---|--------------6-|
E |------------3-3-|----3-3-----6---|4-4-------------|4---------------|

G |----------------|----------------|----------------|----------------|
D |----------------|----------------|------------4---|3-3-------------|
A |4-----------4---|3-----------3---|----------------|----------------|
E |------4---------|------3---------|2-2-------------|----1-1---------|

    Part B

G |----------------|----------------|----------------|----------------|
D |------------2---|----------------|----------------|------3---2-0---|
A |0---------------|0---------------|------------3---|--------------3-|
E |----------------|------------3---|1---------------|1---------------|

G |----------------|----------------|----------------|----------------|
D |----------------|----------------|----------------|----------------|
A |1-----------1---|0-----------0---|5-------------0-|5---------------|
E |----------------|----------------|----------------|----------------|

    Part C

G |----------------|----------------|----------------|----------------|
D |----------------|----------------|----------------|----------------|
A |1---------------|0---------------|----------------|0---------------|
E |----------------|----------------|3---------------|----------------|

G |----------------|----------------|----------------|----------------|
D |----------------|----------------|0---------------|----------------|
A |1---------------|0---------------|----------------|----------------|
E |----------------|----------------|----------------|----------------|

    Repeat back to Part A.
Login or Register to remove this ad.