Ads

Wipe Your Tears Away (Final Fantasy Legend 2) Bass/Guitar Tab

Submitted: Nov 13, 2009 by auriplane (Last updated: Apr 05, 2010)

5
Average: 5 (1 vote)
Download | Listen
Game: Final Fantasy Legend 2
Composer(s): Nobuo Uematsu, Kenji Ito
Style: 2 or more instruments, Alternate picking, Transcription
Series: Final Fantasy

AutoScroll: Slow | Medium | Fast
                            Final Fantasy Legend 2 - Wipe Your Tears Away
                                Composed by Nobuo Uematsu & Kenji Ito

                               Tabbed by auriplane ([email protected])


The first guitar needs 24 frets.  If you have 22 frets, though, you can play all the other notes
normally and play the 24 as a harmonic.  The second guitar is split into two parts in the GP5,
but I combined them into one here since it saves space, and they don't play at the same time.

This is just a transcription, so sorry if the MIDI doesn't sound really great or anything.  My 
goal was just to get the notes written down :-)  If you are looking for an arrangement, look for
Kabukibear's under Romancing SaGa Minstrel Song.

All parts in standard tuning.


                                        FIRST GUITAR - MELODY
      Part A

   E  E  E  E  H            H           E  E  E  E   W                        H           E  E  E  E
e |------15-17-19----------|L-----------19-17-22-19-|15----------------------|------------14----17----|
B |---19-------------------|------------------------|------------------------|---------------17----15-|
G |16----------------------|------------------------|------------------------|------------------------|
D |------------------------|------------------------|------------------------|------------------------|
A |------------------------|------------------------|------------------------|------------------------|
E |------------------------|------------------------|------------------------|------------------------|


   H.                E  E   Q.       E  Q     Q      Q.       E  Q     Q      H           H
e |------------------------|------------------------|------------------------|------------------------|
B |13----------------13-15-|17-------17-15----13----|------------------14----|17----------16----------|
G |------------------------|------------------------|16-------16-15----------|------------------------|
D |------------------------|------------------------|------------------------|------------------------|
A |------------------------|------------------------|------------------------|------------------------|
E |------------------------|------------------------|------------------------|------------------------|


   E  E  E  E  H            H           E  E  E  E   W                        H           E  E  E  E
e |------15-17-19----------|L-----------19-17-22-19-|15----------------------|------------14----17----|
B |---19-------------------|------------------------|------------------------|---------------17----15-|
G |16----------------------|------------------------|------------------------|------------------------|
D |------------------------|------------------------|------------------------|------------------------|
A |------------------------|------------------------|------------------------|------------------------|
E |------------------------|------------------------|------------------------|------------------------|


   H.          E  E  E  E   Q     Q     Q     Q      W                        W
e |---------------------15-|14----------------14----|------------------------|------------------------|
B |13----------L-----13----|------17----15----------|17----------------------|------------------------|
G |---------------16-------|------------------------|------------------------|------------------------|
D |------------------------|------------------------|------------------------|------------------------|
A |------------------------|------------------------|------------------------|------------------------|
E |------------------------|------------------------|------------------------|------------------------|


      Part B

   E  E  E  E  Q     E  E   Q     Q     H            E  E  E  E  Q     E  E   W
e |---------17-20----19-17-|19----15----L-----------|------17-20-24----22-20-|22----------------------|
B |15-17-18----------------|------------------------|17-18-------------------|------------------------|
G |------------------------|------------------------|------------------------|------------------------|
D |------------------------|------------------------|------------------------|------------------------|
A |------------------------|------------------------|------------------------|------------------------|
E |------------------------|------------------------|------------------------|------------------------|


   E  E  E  E  Q     E  E   Q     Q     H            E  E  E  E  Q     E  E   W
e |---------17-20----19-17-|19----15----L-----------|------17-20-24----22-20-|19----------------------|
B |15-17-18----------------|------------------------|17-18-------------------|------------------------|
G |------------------------|------------------------|------------------------|------------------------|
D |------------------------|------------------------|------------------------|------------------------|
A |------------------------|------------------------|------------------------|------------------------|
E |------------------------|------------------------|------------------------|------------------------|



                          SECOND GUITAR - HARMONY

      Part A

   E E E E E E E E  E E E E E E E E  E E E E E E E E  E E E E E E E E  
e |----------------|--5---5---5---5-|--7---7---7---7-|--5---5---5---5-|
B |5-8-5-8-5-8-5-8-|7---7---7---7---|5---5---5---5---|7---7---7---7---|
G |----------------|----------------|----------------|----------------|
D |----------------|----------------|----------------|----------------|
A |----------------|----------------|----------------|----------------|
E |----------------|----------------|----------------|----------------|


   E E E E E E E E  E E E E E E E E  E E E E E E E E  E E E E E E E E  
e |----------------|--5---5---5---5-|----------------|--------------5-|
B |5-8-5-8-5-8-5-8-|7---7---7---7---|5-7-5-7-5-7-5-7-|5-7-5-7-4-7-4---|
G |----------------|----------------|----------------|----------------|
D |----------------|----------------|----------------|----------------|
A |----------------|----------------|----------------|----------------|
E |----------------|----------------|----------------|----------------|


   E E E E E E E E  E E E E E E E E  E E E E E E E E  E E E E E E E E  
e |----------------|--5---5---5---5-|--7---7---7---7-|--5---5---5---5-|
B |5-8-5-8-5-8-5-8-|7---7---7---7---|5---5---5---5---|7---7---7---7---|
G |----------------|----------------|----------------|----------------|
D |----------------|----------------|----------------|----------------|
A |----------------|----------------|----------------|----------------|
E |----------------|----------------|----------------|----------------|


   E E E E E E E E  E E E E E E E E  E E E E E E E E  E E E E E E E E  
e |----------------|--5---5---5---5-|----------------|----------------|
B |5-8-5-8-5-8-5-8-|7---7---7---7---|5-8-5-8-5-8-5-8-|5-8-5-8-5-8-5-8-|
G |----------------|----------------|----------------|----------------|
D |----------------|----------------|----------------|----------------|
A |----------------|----------------|----------------|----------------|
E |----------------|----------------|----------------|----------------|


      Part B

   H       E E E E  Q   E E E E E E  H       E E E E  Q   E E E E E E  
e |--------------8-|10------------7-|--------------8-|7---------------|
B |6-------6-8-10--|--------6-8-10--|10------6-8-10--|------------6-8-|
G |----------------|----7-9---------|----------------|------5-7-9-----|
D |----------------|----------------|----------------|----9-----------|
A |----------------|----------------|----------------|----------------|
E |----------------|----------------|----------------|----------------|


   H       E E E E  Q   E E E E E E  H       E E E E  E E E E E E E E  
e |--------------8-|10------------7-|--------------8-|7---------------|
B |6-------6-8-10--|--------6-8-10--|10------6-8-10--|--7---7--10-8-7-|
G |----------------|----7-9---------|----------------|----9---8-------|
D |----------------|----------------|----------------|----------------|
A |----------------|----------------|----------------|----------------|
E |----------------|----------------|----------------|----------------|



                                   BASS

      Part A

   H.          E E  W                H.          E E  W
G |----------------|----------------|----------------|----------------|
D |2-------------2-|----------------|----------------|----------------|
A |----------------|5---------------|3-------------3-|2---------------|
E |----------------|----------------|----------------|----------------|

   H.          E E  W                H       H        W
G |----------------|----------------|----------------|----------------|
D |----------------|----------------|4---------------|----------------|
A |----------------|5---------------|--------4-------|2---------------|
E |5-------------5-|----------------|----------------|----------------|

   H.          E E  W                H.          E E  W
G |----------------|----------------|----------------|----------------|
D |2-------------2-|----------------|----------------|----------------|
A |----------------|5---------------|3-------------3-|2---------------|
E |----------------|----------------|----------------|----------------|

   H.          E E  W                H.          E E  W
G |----------------|----------------|----------------|----------------|
D |----------------|----------------|----------------|----------------|
A |----------------|2---------------|3-------------3-|4---------------|
E |5-------------5-|----------------|----------------|----------------|


      Part B

   Q   Q   Q   Q    Q   Q   Q   Q    Q   Q   Q   Q    Q   Q   Q   Q
G |--------2---2---|----------------|--------5---5---|----------------|
D |----------------|----5-------5---|3---3-----------|----5-------5---|
A |5---5-----------|--------5-------|----------------|--------5-------|
E |----------------|3---------------|----------------|3---------------|

   Q   Q   Q   Q    Q   Q   Q   Q    Q   Q   Q   Q    H       H
G |--------2---2---|----------------|--------5---5---|4---------------|
D |----------------|----5-------5---|3---3-----------|----------------|
A |5---5-----------|--------5-------|----------------|--------2-------|
E |----------------|3---------------|----------------|----------------|
Login or Register to remove this ad.