Ads

Zidane's Theme (Final Fantasy IX) Guitar Tab

Submitted: Sep 09, 2013 by Colin_spade

5
Average: 5 (3 votes)
Download | Listen
Game: Final Fantasy IX
Composer(s): Nobuo Uematsu
Style: Arrangement, Fingerstyle, Natural harmonics
Series: Final Fantasy

AutoScroll: Slow | Medium | Fast
Zidane's Theme                                  


                                                                   Nobuo Uematsu
Track 1



     E  E  E  E  E  E  E  E     E  E  E  E  E  E  E  E   
E||--------------------------|--------------------------|
B||--------0-----2-----0-----|--------------------------|
G||--2-----0-----2-----0-----|--2-----0-----------0-----|
D||--0--0--------0--0--------|--0--0--------4-----------|
A||-----------0-----------0--|-----------0--5--5-----0--|
E||--------------------------|--------------------------|


  E  E  E  E  E  E  E  E     E  E  E  E  E  E  E  E   
--------------------------|--------------------------|
--------0-----2-----0-----|--2-----3-----2-----0-----|
--2-----0-----2-----0-----|--2-----4-----2-----0-----|
--0--0--------0--0--------|--0--0--------0--0--------|
-----------0-----------0--|-----------0-----------0--|
--------------------------|--------------------------|


    Q    Q    E  S  S E  E     Q    Q    E  S S E  E   
|---5------------2h-3-5--2--|-----------------0-2-----|
|-------------2-------------|--3------------3------3--|
|*--2----0------------0-----|--2----0-----------0-----|
|*--0---------0-------------|--4---------4------------|
|-------------0-------------|--5---------5------------|
|---------------------------|-------------------------|


  E.  S Q    E  S S S S S S    Q    Q    Q    Q       Q    Q    E  S  S E  E   
----------------------------|----------------------|--5------------2h-3-5--2--|
------3-----------0---------|----------------------|------------2-------------|
--2-----2-------2---2-0---0-|--2----0---------0----|--2----0------------0-----|
--4----------0----------4---|--0---------0---------|--0---------0-------------|
--5----------0--------------|--0---------0---------|------------0-------------|
----------------------------|----------------------|--------------------------|


  Q    Q    E  S S E  E     E.  S Q    E  S S E  E     Q    Q    Q    Q     
-----------------0-2-----|-----------------------0--|----------------------|
--3------------3------3--|------3-----------0-3-----|--3-------------------|
--2----0-----------0-----|--2-----2----2--2---0-----|-------0---------0----|
--4---------4------------|--4----------0------------|--0---------0---------|
--5---------5------------|--5----------0------------|--0---------0---------|
-------------------------|--------------------------|----------------------|


  E  E  E  E  E  E  E  E     E  E  E  E  E  E  E  E   
--3--3--------3--3--------|--0-----0-----0-----0-----|
--5--5--------5--5--------|--2-----2-----2-----2-----|
--7--7--------7--7--------|--4-----4-----4-----4-----|
--------------------------|--------------------------|
--3--3-----3--3--3-----3--|--0--0-----0-----0-----0--|
--------------------------|--------------------------|


                                                        ^                   
  E  E  E  E  E  E  E  E     E  E  E  E  E  E  E  E     H        Q    Q     
--3--3--------3--3--------|--0-----0-----------------|---------------------|
--5--5--------5--5--------|--2-----2-----2-----2-----|--1------------------|
--7--7--------7--7--------|--4-----4-----2-----2-----|--2------------------|
--------------------------|--------------6-----6-----|--2------------------|
--3--3-----3--3--3-----3--|--0--0-----0--------------|-----------0----3----|
--------------------------|--------------2--2-----2--|--1------------------|


                        ^                     ^                   
  H        Q    Q       H        Q    Q       H        Q    Q     
---------------------|--3-------------0----|---------------------|
---------------------|-----------6---------|--4------------------|
---------------------|---------------------|--4--------2----0----|
--2--------0---------|--3------------------|--3------------------|
----------------3----|--5------------------|---------------------|
---------------------|--3------------------|--3------------------|


  H        S S  S S  S S S  S    Q    Q    E  S  S E  E   
-------------------------2h-3-|--5------------2h-3-5--2--|
------------------0h-2-3------|------------2-------------|
-------------0h-2-------------|--2----0------------0-----|
--1--------3------------------|--0---------0-------------|
------------------------------|------------0-------------|
------------------------------|--------------------------|


  Q    Q    E  S S E  E     E.  S Q    E  S S S S S S    Q    Q    Q    Q     
-----------------0-2-----|----------------------------|----------------------|
--3------------3------3--|------3-----------0---------|----------------------|
--2----0-----------0-----|--2-----2-------2---2-0---0-|--2----0---------0----|
--4---------4------------|--4----------0----------4---|--0---------0---------|
--5---------5------------|--5----------0--------------|--0---------0---------|
-------------------------|----------------------------|----------------------|


  Q    Q    E  S  S E  E     Q    Q    E  S S E  E     E.  S Q    E  S S E  E   
--5------------2h-3-5--2--|-----------------0-2-----|-----------------------0--|
------------2-------------|--3------------3------3--|------3-----------0-3-----|
--2----0------------0-----|--2----0-----------0-----|--2-----2----2--2---0-----|
--0---------0-------------|--4---------4------------|--4----------0------------|
------------0-------------|--5---------5------------|--5----------0------------|
--------------------------|-------------------------|--------------------------|


                                        |--3--|                    |--3--|   
  Q    Q    Q    Q       Q    Q    Q    E  E  E     Q    Q    Q    E  E  E   
----------------------|--2--------------2--3--2--|--5--------------5--7--5--|
--3-------------------|--------------------------|--------------------------|
-------0---------0----|--2----2----2----2--------|--2----2----2-------------|
--0---------0---------|--4----4----4----4--------|--2----2----2-------------|
--0---------0---------|--5----5----5----5--------|--4----4----4----4--------|
----------------------|--------------------------|--------------------------|


                 |--3--|                    |--3--|   
  Q    Q    Q    E  E  E     Q    Q    Q    E  E  E   
--------------------0-----|--2--------------2--3--2--|
--3--------------3-----3--|--------------------------|
--4----4----4----4--------|--2----2----2----2--------|
--4----4----4----4--------|--4----4----4----4--------|
--5----5----5----5--------|--4----4----4----4--------|
--------------------------|--------------------------|


                 |--3--|     |--3-|            |--3--|   
  Q    Q    Q    E  E  E     Q    E  Q    Q    E  E  E   
--------------------3--7--|--5----0--0---------0--0--2--|
--0--------------3--------|-----------------------------|
--0----0----0----0--------|--2-------2----2----2--------|
--0----0----0----0--------|--2-------2----2----2--------|
--------------------------|--4-------4----4----4--------|
--------------------------|-----------------------------|


       |---3---|                                                     |--3--|   
  Q    E   E   E  Q    Q       Q    Q    Q    Q       Q    Q    Q    E  E  E   
--3----3p--2p--0--2---------|----------------------|--2--------------2--3--2--|
----------------------------|----------------------|--------------------------|
--2----2----------2----2----|--2----2----2----0----|--2----2----2----2--------|
--2----2----------4----4----|--2----2----0----2----|--4----4----4----4--------|
--5----5----------5----5----|--4----4----2----4----|--5----5----5----5--------|
----------------------------|----------------------|--------------------------|


                 |--3--|                    |--3--|   
  Q    Q    Q    E  E  E     Q    Q    Q    E  E  E   
--5--------------5--7--5--|--------------------0-----|
--------------------------|--3--------------3-----3--|
--2----2----2-------------|--4----4----4----4--------|
--2----2----2-------------|--4----4----4----4--------|
--4----4----4----4--------|--5----5----5----5--------|
--------------------------|--------------------------|


                 |--3--|                    |--3--|   
  Q    Q    Q    E  E  E     Q    Q    Q    E  E  E   
--2--------------2--3--2--|--------------------7-----|
--------------------------|--0--------------7-----7--|
--2----2----2----2--------|--0----0----0----0--------|
--4----4----4----4--------|--4----4----4----4--------|
--4----4----4----4--------|--5----5----5----5--------|
--------------------------|--------------------------|


          NH    NH                                            
  |---3---|          |--3-|  |--3--|                          
  Q       E     Q    Q    E  E  E  E     Q    Q    Q    Q     
--9----------<>12----L----7--9--7--9--|--5-------------------|
-------<>12---------------------------|----------------------|
--------------------------------------|--2----2----2----2----|
--0-------------0----0-------0--------|--2----2----2----2----|
--------------------------------------|--5----5----4----4----|
--------------------------------------|----------------------|


                                                               |--3--|   
  Q    Q    Q    Q       Q    Q    Q    Q       Q    Q    Q    E  E  E   
----------------------|--3-------------------|--------------------------|
----------------------|----------------------|--------------------2-----|
--2----2----2----2----|--0----0----0----0----|--2----2----2----4-----4--|
--2----2----2----2----|--0----0----0----0----|--2----2----2----2--------|
--2----2----4----4----|--2----2----2----2----|--4----4----4----4--------|
----------------------|----------------------|--------------------------|


  Q    Q    Q    Q       Q    Q    Q    Q       Q    Q    Q    Q     
------------2---------|----------------------|--0-------------------|
----------------------|--0----0----0----0----|--0----0----0----0----|
--2-------------------|----------------------|--0----0----0----0----|
--4----4----4----4----|--4----4----4----4----|--2----2----2----2----|
--5----5----5----5----|--5----5----5----5----|----------------------|
----------------------|----------------------|----------------------|


                 |--3--|                                                 
  Q    Q    Q    E  E  E     Q    Q    Q    Q       Q    Q    Q    Q     
--------------------------|--2-------------------|------------0----2----|
--------------------2-----|----------------------|-------3--------------|
--2----2----2----4-----4--|--2----2----2----2----|--2----2----2----2----|
--2----2----2----2--------|--4----4----4----4----|--4----4----4----4----|
--4----4----4----4--------|--5----5----5----5----|--3----3----3----3----|
--------------------------|----------------------|----------------------|


                                        |--3--|                          
  Q    Q    Q    Q       Q    Q    Q    E  E  E     Q    Q    Q    Q     
--3-------------------|--------------------------|------------2---------|
----------------------|--------------------2-----|----------------------|
--0----0----0----0----|--2----2----2----4-----4--|--2---------2----2----|
--0----0----0----0----|--2----2----2----2--------|--4----4----4----4----|
--2----2----2----2----|--4----4----4----4--------|--5----5----5----5----|
----------------------|--------------------------|----------------------|


  Q    Q    Q    Q       Q    Q    Q    Q       Q    Q    Q    Q     
----------------------|--0-------------------|----------------------|
--0----0----0----0----|--0----0----0----0----|-----------------2----|
----------------------|--0----0----0----0----|--2----2----2----2----|
--4----4----4----4----|--2----2----2----2----|--2----2----2----2----|
--5----5----5----5----|----------------------|--4----4----4----4----|
----------------------|----------------------|----------------------|


  Q    Q    Q    Q       Q    Q    Q    Q       Q    Q    Q    Q     
----------------------|-------2----3----5----|----------------------|
--3-------------------|----------------------|--0-------------------|
--2----2----2----2----|--2----2----2----2----|----------------------|
--4----4----5----5----|--4----4----4----4----|--0----0----0----0----|
--5----5----5----5----|--5----5----5----3----|--2----2----2----2----|
----------------------|----------------------|--3----3----3----3----|


  Q    Q    Q    Q       Q    Q    Q    Q       Q    Q    Q    Q     
-----------------0----|----------------------|----------------------|
-------2----3---------|----------------------|-------0----2----3----|
----------------------|--1---------2---------|----------------------|
--2----2----2----2----|----------------------|--0----0----0----0----|
--4----4----4----4----|--0----0----0----0----|--2----2----2----2----|
--3----3----3----3----|--2----2----2----2----|--2----2----2----2----|


  Q    Q    Q    Q       Q    Q    Q    Q       Q    Q    Q    Q     
----------------------|----------------------|--2-------------------|
----------------------|------------0----2----|----------------------|
------------0---------|-------2--------------|-------0----2----0----|
--4-------------------|--2----2----2----2----|--4----0----0----0----|
--2----2----2----2----|--4----4----4----4----|--5-------------------|
--3----3----3----3----|--3----3----3----3----|----------------------|


  Q    Q    Q    Q       Q    Q    Q    Q       Q    Q     Q     Q     
-------2----3----5----|--7-------------------|-------9----10----12----|
----------------------|----------------------|------------------------|
--2-------------------|----------------------|------------------------|
--4----4----4----4----|--0----0----0----0----|------------------------|
--5----5----4----3----|----------------------|--7----7-----7-----7----|
----------------------|--7----7----7----7----|--9----9-----9-----9----|


  Q    Q     Q    Q       Q    Q    Q     Q        Q    Q    Q    Q     
-----------------------|-------7----9----10s----|--2---------3---------|
--9---------10---------|------------------------|--0----0----0----0----|
-----------------------|------------------------|--0----0----0----0----|
--7----7-----7----7----|--9----9----9-----9-----|----------------------|
--9----9-----9----9----|--9----9----9-----9-----|----------------------|
-----------------------|------------------------|----------------------|


                 ^                                                           
  Q    Q    Q    Q       E  E  E  E  E  E  E  E     E  E  E  E  E  E  E  E   
-------3----2----0----|--------------------------|--------------------------|
-----------------2----|--3-----0-----2-----0-----|--------------------------|
-----------------2----|--2-----0-----2-----0-----|--2-----0-----------0-----|
--2----2----2---------|--0--0--------0--0--------|--0--0--------4-----------|
--4----4----4---------|-----------0-----------0--|-----------0--5--5-----0--|
----------------------|--------------------------|--------------------------|


  E  E  E  E  E  E  E  E     E  E  E  E  E  E  E  E     
--------------------------|---------------------------||
--------0-----2-----0-----|--2-----3-----2-----0------||
--2-----0-----2-----0-----|--2-----4-----2-----0-----*||
--0--0--------0--0--------|--0--0--------0--0--------*||
-----------0-----------0--|-----------0-----------0---||
--------------------------|---------------------------||




Duration Legend
---------------
W - whole
H - half
Q - quarter
E - 8th
S - 16th
T - 32nd
X - 64th
. - note dotted
|-n-|  - n-tuplets


Tablature Legend
----------------
L - tied note
x - dead note
g - grace note
(n) - ghost note
> - accentuded note
NH - natural harmonic
AH - artificial harmonic
TH - tapped harmonic
SH - semi harmonic
PH - pitch harmonic
h - hammer on
p - pull off
b - bend
br - bendRelease
pb - preBend
pbr - preBendRelease
brb - bendReleaseBend
\n/ - tremolo bar dip
\n - tremolo bar dive
-/n - tremolo bar Release up
/n\ - tremolo bar inverted dip
/n - tremolo bar return
-\n - tremolo bar Release down
S - shift slide
s - legato slide
/ -  slide into from below or out of upwards
\ -  slide into from above or out of downwards
~ - vibrato
W - wide vibrato
tr - trill
TP - tremolo picking
T - tapping
S - slap
P - pop
< - fade in
^ - brush up
v - brush down
Login or Register to remove this ad.