You're Not Alone (Final Fantasy IX) Guitar Tab

Submitted: Aug 05, 2010 by Daugreano

3
Average: 3 (1 vote)
Download | Listen
Game: Final Fantasy IX
Composer(s): Nobuo Uematsu
Style: Alternate picking, Transcription
Series: Final Fantasy

AutoScroll: Slow | Medium | Fast
Song: You're Not Alone
Game: Final Fantasy IX
Composer: Nobuo Uematsu
Tabbed by: Daugreano

Guitar:
 
   H     H       Q    Q    H       Q    Q    E   E   Q      Q    Q    H       Q    Q    Q    Q 
E|-8-----5-----|-3----5----------|-8----8----8---7---5----|-3----5----------|-12---12---12---10---|
B|-------------|-----------5-----|------------------------|-----------5-----|---------------------|
G|-------------|-----------------|------------------------|-----------------|---------------------|
D|-------------|-----------------|------------------------|-----------------|---------------------|
A|-------------|-----------------|------------------------|-----------------|---------------------|
E|-------------|-----------------|------------------------|-----------------|---------------------|


   H     Q    Q      Q    Q    E   E   Q      W        H     H       W    W    H
E|-8-----8----7----|-5----7----8---7---5----|-7------|-8-----5-----|-3----5----------|
B|-----------------|------------------------|--------|-------------|-----------5-----|
G|-----------------|------------------------|--------|-------------|-----------------|
D|-----------------|------------------------|--------|-------------|-----------------|
A|-----------------|------------------------|--------|-------------|-----------------|
E|-----------------|------------------------|--------|-------------|-----------------|


   Q    Q    E   E   Q      Q    Q    H       Q    Q    Q    Q      H     Q    Q
E|-8----8----8---7---5----|-3----7----12----|-12---12---12---10---|-8-----8----7----|
B|------------------------|-----------------|---------------------|-----------------|
G|------------------------|-----------------|---------------------|-----------------|
D|------------------------|-----------------|---------------------|-----------------|
A|------------------------|-----------------|---------------------|-----------------|
E|------------------------|-----------------|---------------------|-----------------|


   Q    Q    E   E   Q      W        
E|-5----8----7---5---3----|-5------|
B|------------------------|--------|
G|------------------------|--------|
D|------------------------|--------|
A|------------------------|--------|
E|------------------------|--------|


Repeat that part...then play this:


 

   H.         Q      H     H       H     Q    Q
E|-----------------|-------5-----|-3---------------|
B|-----------------|-------------|-------5---------|
G|------------4----|-2-----------|------------5----|
D|-----------------|-------------|-----------------|
A|-----------------|-------------|-----------------|
E|-----------------|-------------|-----------------|


   H     Q    Q      Q    Q    H       H     Q    Q      H     H       W        W
E|-----------------|-----------------|-----------------|-------8-----|-7------|-L------|
B|-3-----3---------|-3----5----------|------------3----|-5-----------|--------|--------|
G|------------5----|-----------2-----|-2-----5---------|-------------|--------|--------|
D|-----------------|-----------------|-----------------|-------------|--------|--------|
A|-----------------|-----------------|-----------------|-------------|--------|--------|
E|-----------------|-----------------|-----------------|-------------|--------|--------|


   Q    Q    Q    Q      H     Q    Q      H     Q    Q      Q    Q    H       H     E   E   Q
E|-5----3----5----7----|-8-----3---------|-----------------|-----------------|--------------------|
B|---------------------|------------5----|-3-----3---------|-3----5----------|--------------------|
G|---------------------|-----------------|------------5----|-----------2-----|-2-----4---5---4----|
D|---------------------|-----------------|-----------------|-----------------|--------------------|
A|---------------------|-----------------|-----------------|-----------------|--------------------|
E|---------------------|-----------------|-----------------|-----------------|--------------------|


   H     H       W    
E|-------------|--------|
B|-------------|--------|
G|-------2-----|-L------|
D|-5-----------|--------|
A|-------------|--------|
E|-------------|--------|


Then repeat this part...

Login or Register to remove this ad.

1 comment on You're Not Alone

Hmmm...

There is a missing note, it is a "c" that is a dotted half note, in the first measure of the second part...so it should go: C.......B....A.....A.....