Ads

Vamo' Alla Flamenco (Final Fantasy IX) Guitar Tab

Submitted: Jan 29, 2014 by Basisti94

5
Average: 5 (8 votes)
Download | Listen
Game: Final Fantasy IX
Composer(s): Nobuo Uematsu
Style: Arrangement, Fingerstyle
Series: Final Fantasy

AutoScroll: Slow | Medium | Fast
                            Vamo' Alla Flamenco
Final Fantasy IX
Nobuo Uematsu
Guitar arrangement by Basisti94 (Miro Laaksonen)
26.1.2014



  Tempo ~ 90

     ^                   ^                   ^                 
     W                   W                   W                 
E||--0----------------|--0----------------|--0----------------|
B||--1----------------|--1----------------|--1----------------|
G||--2----------------|--2----------------|--2----------------|
D||--2----------------|--3----------------|--4----------------|
A||--0----------------|--0----------------|--0----------------|
E||-------------------|-------------------|-------------------|


  ^                   ^                                               
                                                   |--3--|  |--3--|   
  W                   W                   H        E  E  E  E  E  E   
--0----------------|--0----------------|--L--------------------------|
--1----------------|--1----------------|--L--------------------------|
--2----------------|--2----------------|--L--------------------------|
--3----------------|--2----------------|-----------2-----------------|
--0----------------|--0----------------|--L-----------0--3-----2--1--|
-------------------|-------------------|--------------------0--------|


    ^                 ^                   ^                 ^       ^     
    |--3--|  |--3--|  |--3-|  |--3--|     |--3--|  |--3--|  |--3-|        
    E  E  E  E  E  E  Q    E  E  E  E     E  E  E  E  E  E  Q    E  Q     
|--------------------------------------|---------------------------------|
|------------1--0-----0----------------|-----------1--0-----3----0-------|
|*--2--1--2--------2-------1--------1--|--2--1--2--------2--0-------0----|
|*--2-----------------2-------2--4-----|--2-----------------0-------0----|
|---0--------0-------------------------|--0--------0---------------------|
|---------------------0-------0--------|--------------------3-------3----|


  ^                 ^                   ^                ^              
  |--3--|  |--3--|  |--3-|  |--3--|     |--3-|  |--3--|  |--3--|        
  E  E  E  E  E  E  Q    E  E  E  E     Q    E  E  E  E  E  E  E  Q     
-----------0-------------------------|---------------------------------|
--1--0--1-----3--1--3----0--------0--|--1----0-------------------------|
--0-----------------0-------0--2-----|--2----------2--1--2-------------|
--2-----------------0----------------|--3----------------2--2----------|
--3--------3-------------------------|-------------------0-----3--0----|
--------------------3-------3--------|--1-------0----------------------|


  ^                 ^                   ^                  ^             
  |--3--|  |--3--|  |--3-|  |--3--|     |--3--|  |--3--|   |--3-|        
  E  E  E  E  E  E  Q    E  E  E  E     E  E  E  E  E  E   Q    E  Q     
--5--4--5--8--7--5--7----4--------4--|--5--4--5--8--7--5--10----7-------|
--5-----------------5-------5--7-----|--5------------------8-------8----|
--5-----------------4----------------|--5------------------7------------|
-------------------------------------|---------------------0-------0----|
--0--------0-------------------------|--0--------0----------------------|
--------------------0-------0--------|----------------------------------|


                        ^                                     ^              
  |---3--|   |---3--|   |--3-|  |---3--|     |--3-|  |--3--|  |--3--|        
  E   E  E   E   E  E   Q    E  E   E  E     Q    E  E  E  E  E  E  E  Q     
--8------8--12--10--8--10----7---------7--|--8----7-----5--4--5-------------|
-----12-----------------8-------8--10-----|-------------------5--5----------|
------------------------7-----------------|-------------------5-----5-------|
------------------------0-----------------|---------------------------------|
------------------------------------------|--8----------------0--------0----|
--8----------8----------------------------|----------0----------------------|


  |--3--|  |--3--|  |--3--|  |--3--|     |--3--|  |--3--|  |--3--|  |--3--|   
  E  E  E  E  E  E  E  E  E  E  E  E     E  E  E  E  E  E  E  E  E  E  E  E   
-----------5-----5--4--2--4--5-----5--|--7--5--7--5--7--5--4--2--4--5-----5--|
--------5-----------------------------|--------------------------------------|
-----5--------------------------------|--------------------------------------|
--------------------------------------|-----------3-----3--------------------|
--0-----0-----0--------------0--L--0--|-----------------------------0-----0--|
--------------------0-----0-----------|--0-----0-----------0-----0-----0-----|


                                                            ^         
  |--3--|  |--3--|  |--3--|  |--3--|      |--3--|  |--3--|            
  E  E  E  E  E  E  E  E  E  E  E  E      E  E  E  E  E  E  H         
-----------5-----5--4--2--4--5-----5--|--10--8--7--5--7--5-----------|
--------5-----------------------------|---------------------9--------|
-----5--------------------------------|---------------------9--------|
--------------------------------------|---0-----------------9--------|
--0-----0-----0--------------0--L--0--|------------6--------7--------|
--------------------0-----0-----------|------------------------------|


  ^            ^         ^           ^                 ^                 
                                     |--3--|  |--3--|  |--3-|  |--3--|   
  H            H         H           E  E  E  E  E  E  Q    E  E  E  E   
--7--------|--10--------13--------|-------------------------------------|
--9--------|---9--------12--------|-----------1--0-----0----------------|
--9--------|---7--------13--------|--2--1--2--------2-------1--------1--|
--9--------|---9--------12--------|--2-----------------2-------2--4-----|
--7--------|---7------------------|--0--------0-------------------------|
-----------|-------------0--------|--------------------0-------0--------|


  ^                 ^       ^       ^                 ^                 
  |--3--|  |--3--|  |--3-|          |--3--|  |--3--|  |--3-|  |--3--|   
  E  E  E  E  E  E  Q    E  Q       E  E  E  E  E  E  Q    E  E  E  E   
---------------------------------|-----------0-------------------------|
-----------1--0-----3----0-------|--1--0--1-----3--1--3----0--------0--|
--2--1--2--------2--0-------0----|--0-----------------0-------0--2-----|
--2-----------------0-------0----|--2-----------------0----------------|
--0--------0---------------------|--3--------3-------------------------|
--------------------3-------3----|--------------------3-------3--------|


  ^                ^                ^                 ^                 
  |--3-|  |--3--|  |--3--|          |--3--|  |--3--|  |--3-|  |--3--|   
  Q    E  E  E  E  E  E  E  Q       E  E  E  E  E  E  Q    E  E  E  E   
---------------------------------|--5--4--5--8--7--5--7----4--------4--|
--1----0-------------------------|--5-----------------5-------5--7-----|
--2----------2--1--2-------------|--5-----------------4----------------|
--3----------------2--2----------|-------------------------------------|
-------------------0-----3--0----|--0--------0-------------------------|
--1-------0----------------------|--------------------0-------0--------|


  ^                  ^                                     ^                  
  |--3--|  |--3--|   |--3-|          |---3--|   |---3--|   |--3-|  |---3--|   
  E  E  E  E  E  E   Q    E  Q       E   E  E   E   E  E   Q    E  E   E  E   
--5--4--5--8--7--5--10----7-------|--8------8--12--10--8--10----7---------7--|
--5------------------8-------8----|-----12-----------------8-------8--10-----|
--5------------------7------------|------------------------7-----------------|
---------------------0-------0----|------------------------0-----------------|
--0--------0----------------------|------------------------------------------|
----------------------------------|--8----------8----------------------------|


                   ^                                   ^                  
  |--3-|  |--3--|  |--3--|          |-3| |3|  |--3--|  |--3--|  |--3--|   
  Q    E  E  E  E  E  E  E  Q       E  S S E  E  E  E  E  E  E  E  E  E   
--8----7-----5--4--5-------------|------------5--4--2--1--0--1-----0--1--|
-------------------5--5----------|-------2-5-----------3--------3--------|
-------------------5-----5-------|-----2---------------2-----------------|
---------------------------------|---------------------0-----------------|
--8----------------0--------0----|--0------------------------------------|
----------0----------------------|---------------------------------------|


  ^             ^                                   ^                  
       |--3--|       |--3--|     |-3| |3|  |--3--|  |--3--|  |--3--|   
  Q    E  E  E  Q    E  E  E     E  S S E  E  E  E  E  E  E  E  E  E   
--0----------0----------------|------------5--4--2--1--0--1-----0--1--|
--1----1--3-----3-------1--3--|-------2-5-----------3--------3--------|
--2-------------3----3--------|-----2---------------2-----------------|
----------------3-------------|---------------------0-----------------|
--0-------------1-------------|--0------------------------------------|
------------------------------|---------------------------------------|


  ^                ^                    ^  ^ v ^  v  ^  v  ^  ^ v ^  v  ^  v   
  |--3-|  |--3--|  |--3--|  |--3--|     |-3| |3|  |--3--|  |-3| |3|  |--3--|   
  Q    E  E  E  E  E  E  E  E  E  E     E  S S E  E  E  E  E  S S E  E  E  E   
--3----0--0--1--3--5--3--5--8--7--5--|--4-------------------------------------|
-------------------------------------|--0--0-0-0--0--0--0--1--1-1-1--1--1--1--|
--0----------------5-----------------|--1--1-1-1--1--1--1--2--2-2-2--2--2--2--|
--2----------------3-----------------|--2--2-2-2--2--2--2--3--3-3-3--3--3--3--|
--3----------------------------------|--x--x-x-x--x--x--x--3--3-3-3--3--3--3--|
-------------------------------------|--0--0-0-0--0--0--0--1--1-1-1--1--1--1--|
					

  ^  ^ v ^  v  ^  v  ^  ^ v ^  ^            
  |-3| |3|  |--3--|  |-3| |3|  |-3|  |-3-|  
  E  S S E  E  E  E  E  S S E  E  S  S S S  
-------------------------------------------|
--3--3-3-3--1--1--1--0--0-0-0--0-----------|
--4--4-4-4--2--2--2--1--1-1-1--1--1h-2-1---|
--5--5-5-5--3--3--3--2--2-2-2--2---------4-|
--5--5-5-5--3--3--3--2--2-2-2--2-----------|
--3--3-3-3--1--1--1--0--0-0-0--0-----------|


  ^  ^ v ^  v  ^  v  ^  ^ v ^  v  ^  v   
  |-3| |3|  |--3--|  |-3| |3|  |--3--|   
  E  S S E  E  E  E  E  S S E  E  E  E   
----------------------------------------|
----------------------------------------|
--1--1-1-1--1--1--1--2--2-2-2--2--2--2--|
--2--2-2-2--2--2--2--3--3-3-3--3--3--3--|
--2--2-2-2--2--2--2--3--3-3-3--3--3--3--|
--0--0-0-0--0--0--0--1--1-1-1--1--1--1--|


  ^  ^ v ^  v  ^  v  ^  ^ v ^  v  ^  v       ^                        
  |-3| |3|  |--3--|  |-3| |3|  |--3--|                           ---  
  E  S S E  E  E  E  E  S S E  E  E  E       W                        
-----------------------------------------||-------------------|-----||
--3--3-3-3--1--1--1--0--0-0-0--0--0--0---||--0----------------|-----||
--4--4-4-4--2--2--2--1--1-1-1--1--1--1--*||--1----------------|-----||
--5--5-5-5--3--3--3--2--2-2-2--2--2--2--*||--2----------------|-----||
--5--5-5-5--3--3--3--2--2-2-2--2--2--2---||--2----------------|-----||
--3--3-3-3--1--1--1--0--0-0-0--0--0--0---||--0----------------|-----||




Duration Legend
---------------
W - whole
H - half
Q - quarter
E - 8th
S - 16th
T - 32nd
X - 64th
. - note dotted
|-n-|  - n-tuplets


Tablature Legend
----------------
L - tied note
x - dead note
g - grace note
(n) - ghost note
> - accentuded note
NH - natural harmonic
AH - artificial harmonic
TH - tapped harmonic
SH - semi harmonic
PH - pitch harmonic
h - hammer on
p - pull off
b - bend
S - shift slide
s - legato slide
/ -  slide into from below or out of upwards
\ -  slide into from above or out of downwards
~ - vibrato
W - wide vibrato
tr - trill
TP - tremolo picking
T - tapping
S - slap
P - pop
< - fade in
^ - brush up
v - brush down
Login or Register to remove this ad.

3 comments on Vamo' Alla Flamenco

love it Rasugueado. X)

5

love it Rasugueado. X)

Yay!

5

Yay!

That was really awesome!

5

That was really awesome!