Ads

Vamo' Alla Flamenco (Final Fantasy IX) Guitar Tab

Submitted: Jun 17, 2010 by Daugreano

4.166665
Average: 4.2 (6 votes)
Download | Listen
Game: Final Fantasy IX
Composer(s): Nobuo Uematsu
Style: Alternate picking, Transcription
Series: Final Fantasy

AutoScroll: Slow | Medium | Fast
Song: Vamo' Alla Flamenco
Game: Final Fantasy IX
Composer: Nobuo Uematsu
Tabbed by: Daugreano

Guitar: 

   E   E   E   E   E   E     Q    E   E   E   E     E   E   E   E   E   E     Q    E   Q  E
E|-------------------------|----------------------|-------------------------|----------------|
B|-------------------------|----------------------|-------------------------|----------------|
G|-------------------------|----------------------|-------------------------|----------------|
D|-------------------------|----------------------|-------------------------|-0--------------|
A|-0-------0---3---2---0---|-2--------------------|-0-------0---3---2---0---|------2---------|
E|-----4-------------------|------4---0---2---4---|-----4-------------------|----------3--L--|

   E   E   E   E   E   E     Q    E   E   E   E     Q    Q    E   E     H   Q    E   E   E   E   E   E
E|-------------------------|----------------------|-------------------|--------|-------------------------|
B|-------------------------|----------------------|-------------------|--------|-------------1---0-------|
G|-------------------------|----------------------|-------------------|--------|-2---1---2-----------2---|
D|-------------2---0-------|-0--------------------|-------------------|--------|-------------------------|
A|-3---2---3-----------3---|------2-------0---2---|-3----2----0-------|-0---L--|-------------------------|
E|-------------------------|----------3-----------|---------------4---|--------|-------------------------|

   Q    E   E   E   E     E   E   E   E   E   E     Q    E   Q   E   E   E   E   E   E   E
E|----------------------|-------------------------|----------------|-------------0-----------|
B|-0--------------------|-------------1---0-------|-3----0---------|-1---0---1-------3---1---|
G|------1-----------1---|-2---1---2-----------2---|----------0---L-|-------------------------|
D|----------2---4-------|-------------------------|----------------|-------------------------|
A|----------------------|-------------------------|----------------|-------------------------|
E|----------------------|-------------------------|----------------|-------------------------|

   Q    E   E   E   E     Q    Q    E   E     H   Q    E   E   E   Q    E     E   E   E   Q    E
E|----------------------|-------------------|--------|----------------------|----------------------|
B|-3----0-----------0---|-1----0------------|--------|----------------------|----------------------|
G|----------0---2-------|-----------2---1---|-2---L--|----------------------|----------------------|
D|----------------------|-------------------|--------|----------------------|----------------------|
A|----------------------|-------------------|--------|-----3-------0----0---|-------------0----0---|
E|----------------------|-------------------|--------|---------0------------|-4---2---4------------|

   E   E   E   E   E   E     E   E   E   Q    E     E   E   E   Q    E     E   E   E   Q    E
E|-------------------------|----------------------|----------------------|----------------------|
B|-------------------------|----------------------|----------------------|----------------------|
G|-------------------------|----------------------|----------------------|----------------------|
D|-------------------------|----------------------|----------------------|----------------------|
A|-2---0---2---0---2---0---|-------------0----0---|-----3-------0----0---|-------------0----0---|
E|-------------------------|-4---2---4------------|---------0------------|-4---2---4------------|
                                        
   E   E   E   E   E   E     H   Q    H   Q    E   E   E   E   E   E     Q    E   E   E   E
E|-------------------------|--------|--------|-------------------------|----------------------|
B|-------------------------|--------|--------|-------------1---0-------|-0--------------------|
G|-------------------------|--------|--------|-2---1---2-----------2---|------1-----------1---|
D|-0-----------------------|--------|--------|-------------------------|----------2---4-------|
A|-----3---2---0---2---0---|--------|--------|-------------------------|----------------------|
E|-------------------------|-4---L--|--------|-------------------------|----------------------|

   E   E   E   E   E   E     Q    E   Q   E   E   E   E   E   E   E     Q    E   E   E   E 
E|-------------------------|----------------|-------------0-----------|----------------------|
B|-------------1---0-------|-3----0---------|-1---0---1-------3---1---|-3----0-----------0---|
G|-2---1---2-----------2---|----------0---L-|-------------------------|----------0---2-------|
D|-------------------------|----------------|-------------------------|----------------------|
A|-------------------------|----------------|-------------------------|----------------------|
E|-------------------------|----------------|-------------------------|----------------------|

Repeat from the blank measure after playing this dotted half note...
                       V

   Q    Q    E   E     H   Q    E   S  S  E   E   E   E     E   E   E   E   E   E
E|-------------------|--------|-----------0---5---4---2---|-1---0---1-------0---1---|
B|-1----0------------|--------|--------2------------------|-------------3-----------|
G|-----------2---1---|-2---L--|-----2---------------------|-------------------------|
D|-------------------|--------|---------------------------|-------------------------|
A|-------------------|--------|---------------------------|-------------------------|
E|-------------------|--------|---------------------------|-------------------------|

   Q  E  E   E   E     Q  E  E   E   E     E   S  S  E   E   E   E     E   E   E   E   E   E
E|-0--L----------0---|-------------------|-----------0---5---4---2---|-1---0---1-------0---1---|
B|-------1---3-------|-3--L------1---3---|--------2------------------|-------------3-----------|
G|-------------------|-------3-----------|-----2---------------------|-------------------------|
D|-------------------|-------------------|---------------------------|-------------------------|
A|-------------------|-------------------|---------------------------|-------------------------|
E|-------------------|-------------------|---------------------------|-------------------------|
 
   Q    E   E   E   E     E   E   E   E   E   E     H   Q    H     S  S  S  S    H   Q
E|-3----0---0---1---3---|-5---3---5---8---7---5---|-4---L--|-------4h-5--4--2--|-4---L--|
B|----------------------|-------------------------|--------|-------------------|--------|
G|----------------------|-------------------------|--------|-------------------|--------|
D|----------------------|-------------------------|--------|-------------------|--------|
A|----------------------|-------------------------|--------|-------------------|--------|
E|----------------------|-------------------------|--------|-------------------|--------|

   H   Q    E   E   E   E   E   E     Q    E   E   E   E     E   E   E   E   E   E
E|--------|-------------------------|----------------------|-------------------------|
B|--------|-------------------------|----------------------|-------------------------|
G|--------|-------------------------|----------------------|-------------------------|
D|--------|-------------------------|----------------------|-------------------------|
A|--------|-0-------0---3---2---0---|-2--------------------|-0-------0---3---2---0---|
E|--------|-----4-------------------|------4---0---2---4---|-----4-------------------|

   Q    E   Q  E    E   E   E   E   E   E     Q    E   E   E   E     Q    Q    E   E
E|----------------|-------------------------|----------------------|-------------------|
B|----------------|-------------------------|----------------------|-------------------|
G|----------------|-------------------------|----------------------|-------------------|
D|-0--------------|-------------2---0-------|-0--------------------|-------------------|
A|------2---------|-3---2---3-----------3---|------2-------0---2---|-3----2----0-------|
E|----------3--L--|-------------------------|----------3-----------|---------------4---|

   H   Q
E|--------|
B|--------|
G|--------|
D|--------|
A|-0---L--|
E|--------|




Login or Register to remove this ad.

5 comments on Vamo' Alla Flamenco

good work thank you for the

4

good work

thank you for the tab

Thank you...

I'm glad you like it, this is one of my favorites.

I Like This One Nice Work ^^

5

I Like This One

Nice Work ^^

Thank you...

I'm glad it is getting at least a little attention.

Really fun to play, thanks!

5

Really fun to play, thanks!