Ads

Vamo' Alla Flamenco (Trio) (Final Fantasy IX) Bass/Guitar Tab

Submitted: Oct 01, 2009 by TheDoomOfAllFires (Last updated: Jun 15, 2010)

5
Average: 5 (4 votes)
Download | Listen
Game: Final Fantasy IX
Composer(s): Nobuo Uematsu
Style: 2 or more instruments, Transcription
Series: Final Fantasy

AutoScroll: Slow | Medium | Fast
Final Fantasy IX - Vamo' Alla Flamenco
Transcribed by TheDoomOfAllFires; 10/01/2009

BPM :
Measures 1-7 = 80
Measures 8-67 = 130

Guitars : Standard Tuning
Bass : Tuned Down 1 Step


Hope you like it ! ^^



Rhythm :

     ^               ^               ^               ^             
     H.              H.              H.              H.            
E||--0------------|--0------------|--0------------|--0------------|
B||--1------------|--1------------|--1------------|--1------------|
G||--2------------|--2------------|--2------------|--2------------|
D||--2------------|--3------------|--4------------|--3------------|
A||--0------------|--0------------|--0------------|--0------------|
E||---------------|---------------|---------------|---------------|


  ^                                                 ^  ^ v ^  ^  ^  ^   
  H.              H.                                E  S S E  E  E  E   
--0------------|--L------------|---------------||---0--0-0-0--0--0--0--|
--1------------|--L------------|---------------||---1--1-1-1--1--1--1--|
--2------------|--L------------|---------------||*--2--2-2-2--2--2--2--|
--2------------|--L------------|---------------||*--2--2-2-2--2--2--2--|
--0------------|--L------------|---------------||---0--0-0-0--0--0--0--|
---------------|---------------|---------------||----------------------|


  ^  ^ v ^  ^  ^  ^     ^  ^ v ^  ^  ^  ^     ^  ^ v ^  ^  ^  ^   
  E  S S E  E  E  E     E  S S E  E  E  E     E  S S E  E  E  E   
--0--0-0-0--0--0--0--|--0--0-0-0--0--0--0--|---------------------|
--0--0-0-0--0--0--0--|--1--1-1-1--1--1--1--|--3--3-3-3--3--3--3--|
--1--1-1-1--1--1--1--|--2--2-2-2--2--2--2--|--0--0-0-0--0--0--0--|
--2--2-2-2--2--2--2--|--2--2-2-2--2--2--2--|--0--0-0-0--0--0--0--|
--2--2-2-2--2--2--2--|--0--0-0-0--0--0--0--|---------------------|
--0--0-0-0--0--0--0--|---------------------|--3--3-3-3--3--3--3--|


  ^  ^ v ^  ^  ^  ^     ^  ^ v ^  ^  ^  ^     ^  ^ v ^  ^  ^  ^   
  E  S S E  E  E  E     E  S S E  E  E  E     E  S S E  E  E  E   
---------------------|---------------------|---------------------|
--1--1-1-1--1--1--1--|--0--0-0-0--0--0--0--|--1--1-1-1--0--0--0--|
--0--0-0-0--0--0--0--|--0--0-0-0--0--0--0--|--2--2-2-2--1--1--1--|
--2--2-2-2--2--2--2--|--0--0-0-0--0--0--0--|--3--3-3-3--2--2--2--|
--3--3-3-3--3--3--3--|---------------------|--3--3-3-3--2--2--2--|
---------------------|--3--3-3-3--3--3--3--|--1--1-1-1--0--0--0--|


  ^  ^ v ^  ^  ^  ^       ^  ^ v ^  ^  ^  ^                       
  E  S S E  E  E  E       E  S S E  E  E  E     E  E  E  Q    E   
--0--0-0-0--0--0--0---||--0--0-0-0--0--0--0--|--L----------------|
--1--1-1-1--1--1--1---||--1--1-1-1--1--1--1--|--L----------------|
--2--2-2-2--2--2--2--*||--2--2-2-2--2--2--2--|--L--------2----2--|
--2--2-2-2--2--2--2--*||--2--2-2-2--2--2--2--|--L-----2----------|
--0--0-0-0--0--0--0---||--0--0-0-0--0--0--0--|--L--3-------------|
----------------------||---------------------|-------------------|


  E  E  E  Q    E     E  E  E  E  E  E     E  E  E  Q    E     Q    Q    Q     
-------------------|--------------------|-------------------|--0----0----0----|
-------------------|--0-----0-----0-----|-------------------|--1----1----1----|
--1-----1--2----2--|-----2-----2-----2--|--1-----1--2----2--|--2----2----2----|
-----4-------------|--------------------|-----4-------------|--2----2----2----|
-------------------|--------------------|-------------------|--0----0----0----|
-------------------|--------------------|-------------------|-----------------|


  ^  ^ v ^                              ^               ^             
  E  S S E  Q    E     Q.     Q.        H.              H.            
--0--0-0-0--0----0--|--1-------------|--0------------|--0------------|
--0--0-0-0--1----1--|--3------4------|--0------------|--0------------|
--1--1-1-1--2----2--|--2------2------|--1------------|--1------------|
--2--2-2-2--2----2--|--0-------------|--2------------|--2------------|
--2--2-2-2--0----0--|----------------|--2------------|--2------------|
--0--0-0-0----------|----------------|--0------------|--0------------|


  ^               ^                 ^  ^ v ^  ^  ^  ^     ^  ^ v ^  ^  ^  ^   
  H.              H.                E  S S E  E  E  E     E  S S E  E  E  E   
--0------------|--0------------||---0--0-0-0--0--0--0--|--0--0-0-0--0--0--0--|
--0------------|--0------------||---1--1-1-1--1--1--1--|--0--0-0-0--0--0--0--|
--1------------|--1------------||*--2--2-2-2--2--2--2--|--1--1-1-1--1--1--1--|
--2------------|--2------------||*--2--2-2-2--2--2--2--|--2--2-2-2--2--2--2--|
--2------------|--2------------||---0--0-0-0--0--0--0--|--2--2-2-2--2--2--2--|
--0------------|--0------------||----------------------|--0--0-0-0--0--0--0--|


  ^  ^ v ^  ^  ^  ^     ^  ^ v ^  ^  ^  ^     ^  ^ v ^  ^  ^  ^   
  E  S S E  E  E  E     E  S S E  E  E  E     E  S S E  E  E  E   
--0--0-0-0--0--0--0--|---------------------|---------------------|
--1--1-1-1--1--1--1--|--3--3-3-3--3--3--3--|--1--1-1-1--1--1--1--|
--2--2-2-2--2--2--2--|--0--0-0-0--0--0--0--|--0--0-0-0--0--0--0--|
--2--2-2-2--2--2--2--|--0--0-0-0--0--0--0--|--2--2-2-2--2--2--2--|
--0--0-0-0--0--0--0--|---------------------|--3--3-3-3--3--3--3--|
---------------------|--3--3-3-3--3--3--3--|---------------------|


  ^  ^ v ^  ^  ^  ^     ^  ^ v ^  ^  ^  ^     ^  ^ v ^  ^  ^  ^     
  E  S S E  E  E  E     E  S S E  E  E  E     E  S S E  E  E  E     
---------------------|---------------------|--0--0-0-0--0--0--0---||
--0--0-0-0--0--0--0--|--1--1-1-1--0--0--0--|--1--1-1-1--1--1--1---||
--0--0-0-0--0--0--0--|--2--2-2-2--1--1--1--|--2--2-2-2--2--2--2--*||
--0--0-0-0--0--0--0--|--3--3-3-3--2--2--2--|--2--2-2-2--2--2--2--*||
---------------------|--3--3-3-3--2--2--2--|--0--0-0-0--0--0--0---||
--3--3-3-3--3--3--3--|--1--1-1-1--0--0--0--|----------------------||


  E  S  S E  E  E  E     E  E  E  E  E  E     Q    E  E  E  E   
--L-------------------|--------------------|-------------------|
--L-------------------|--------------------|-------------------|
--L----------2--0-----|--------------------|-------------------|
--L-------2--------4--|--3--2--3--0--2--3--|--2----------0--2--|
--L--0h-4-------------|--------------------|-------3--3--------|
----------------------|--------------------|-------------------|


  Q.     E  E  E     E  S  S E  E  E  E     E  E  E  E  E  E   
------------------|--L-------------------|--------------------|
------------------|--L-------------------|--------------------|
------------------|--L----------2--0-----|--------------------|
--0------0--2--3--|--L-------2--------4--|--3--2--3--0--2--3--|
------------------|--L--0h-4-------------|--------------------|
------------------|----------------------|--------------------|


                                           ^  ^ v ^ ^ ^  ^  ^   
  Q    E  E  E  E     E  E  E  E  E  E     E  S S S S E  E  E   
-------------------|--------------------|----------------------|
-------------------|-----------1--0-----|--0--0-0-0-0-0--0--0--|
--0-------------0--|--2--1--2--------2--|--1--1-1-1-1-1--1--1--|
-------2--2--3-----|--------------------|--2--2-2-2-2-2--2--2--|
-------------------|--------------------|--2--2-2-2-2-2--2--2--|
-------------------|--------------------|--0--0-0-0-0-0--0--0--|


  ^  ^ v ^ ^ ^  ^  ^     ^  ^ v ^ ^ ^  ^  ^     ^  ^ v ^ ^ ^  ^  ^   
  E  S S S S E  E  E     E  S S S S E  E  E     E  S S S S E  E  E   
----------------------|----------------------|----------------------|
--1--1-1-1-1-1--1--1--|--3--3-3-3-3-1--1--1--|--0--0-0-0-0-0--0--0--|
--2--2-2-2-2-2--2--2--|--4--4-4-4-4-2--2--2--|--1--1-1-1-1-1--1--1--|
--3--3-3-3-3-3--3--3--|--5--5-5-5-5-3--3--3--|--2--2-2-2-2-2--2--2--|
--3--3-3-3-3-3--3--3--|--5--5-5-5-5-3--3--3--|--2--2-2-2-2-2--2--2--|
--1--1-1-1-1-1--1--1--|--3--3-3-3-3-1--1--1--|--0--0-0-0-0-0--0--0--|


  ^  ^ v ^ ^ ^  ^  ^     ^  ^ v ^ ^ ^  ^  ^     ^  ^ v ^ ^ ^  ^  ^   
  E  S S S S E  E  E     E  S S S S E  E  E     E  S S S S E  E  E   
----------------------|----------------------|----------------------|
--0--0-0-0-0-0--0--0--|--1--1-1-1-1-1--1--1--|--3--3-3-3-3-1--1--1--|
--1--1-1-1-1-1--1--1--|--2--2-2-2-2-2--2--2--|--4--4-4-4-4-2--2--2--|
--2--2-2-2-2-2--2--2--|--3--3-3-3-3-3--3--3--|--5--5-5-5-5-3--3--3--|
--2--2-2-2-2-2--2--2--|--3--3-3-3-3-3--3--3--|--5--5-5-5-5-3--3--3--|
--0--0-0-0-0-0--0--0--|--1--1-1-1-1-1--1--1--|--3--3-3-3-3-1--1--1--|


  ^  ^ v ^ ^ ^  ^  ^       ^  ^ v ^  ^  ^  ^     ^  ^ v ^  ^  ^  ^   
  E  S S S S E  E  E       E  S S E  E  E  E     E  S S E  E  E  E   
----------------------||---0--0-0-0--0--0--0--|--0--0-0-0--0--0--0--|
--0--0-0-0-0-0--0--0--||---1--1-1-1--1--1--1--|--0--0-0-0--0--0--0--|
--1--1-1-1-1-1--1--1--||*--2--2-2-2--2--2--2--|--1--1-1-1--1--1--1--|
--2--2-2-2-2-2--2--2--||*--2--2-2-2--2--2--2--|--2--2-2-2--2--2--2--|
--2--2-2-2-2-2--2--2--||---0--0-0-0--0--0--0--|--2--2-2-2--2--2--2--|
--0--0-0-0-0-0--0--0--||----------------------|--0--0-0-0--0--0--0--|


  ^  ^ v ^  ^  ^  ^     ^  ^ v ^  ^  ^  ^     ^  ^ v ^  ^  ^  ^   
  E  S S E  E  E  E     E  S S E  E  E  E     E  S S E  E  E  E   
--0--0-0-0--0--0--0--|---------------------|---------------------|
--1--1-1-1--1--1--1--|--3--3-3-3--3--3--3--|--1--1-1-1--1--1--1--|
--2--2-2-2--2--2--2--|--0--0-0-0--0--0--0--|--0--0-0-0--0--0--0--|
--2--2-2-2--2--2--2--|--0--0-0-0--0--0--0--|--2--2-2-2--2--2--2--|
--0--0-0-0--0--0--0--|---------------------|--3--3-3-3--3--3--3--|
---------------------|--3--3-3-3--3--3--3--|---------------------|


  ^  ^ v ^  ^  ^  ^     ^  ^ v ^  ^  ^  ^     ^  ^ v ^  ^  ^  ^     
  E  S S E  E  E  E     E  S S E  E  E  E     E  S S E  E  E  E     
---------------------|---------------------|--0--0-0-0--0--0--0---||
--0--0-0-0--0--0--0--|--1--1-1-1--0--0--0--|--1--1-1-1--1--1--1---||
--0--0-0-0--0--0--0--|--2--2-2-2--1--1--1--|--2--2-2-2--2--2--2--*||
--0--0-0-0--0--0--0--|--3--3-3-3--2--2--2--|--2--2-2-2--2--2--2--*||
---------------------|--3--3-3-3--2--2--2--|--0--0-0-0--0--0--0---||
--3--3-3-3--3--3--3--|--1--1-1-1--0--0--0--|----------------------||


  ^  ^ v ^  ^  ^  ^     ^  ^ v ^  ^  ^  ^     ^  ^ v ^  ^  ^  ^   
  E  S S E  E  E  E     E  S S E  E  E  E     E  S S E  E  E  E   
--0--0-0-0--0--0--0--|--0--0-0-0--0--0--0--|--0--0-0-0--0--0--0--|
--1--1-1-1--1--1--1--|--0--0-0-0--0--0--0--|--1--1-1-1--1--1--1--|
--2--2-2-2--2--2--2--|--1--1-1-1--1--1--1--|--2--2-2-2--2--2--2--|
--2--2-2-2--2--2--2--|--2--2-2-2--2--2--2--|--2--2-2-2--2--2--2--|
--0--0-0-0--0--0--0--|--2--2-2-2--2--2--2--|--0--0-0-0--0--0--0--|
---------------------|--0--0-0-0--0--0--0--|---------------------|


  ^  ^ v ^  ^  ^  ^     ^  ^ v ^  ^  ^  ^     ^  ^ v ^  ^  ^  ^   
  E  S S E  E  E  E     E  S S E  E  E  E     E  S S E  E  E  E   
---------------------|---------------------|---------------------|
--3--3-3-3--3--3--3--|--1--1-1-1--1--1--1--|--0--0-0-0--0--0--0--|
--0--0-0-0--0--0--0--|--0--0-0-0--0--0--0--|--0--0-0-0--0--0--0--|
--0--0-0-0--0--0--0--|--2--2-2-2--2--2--2--|--0--0-0-0--0--0--0--|
---------------------|--3--3-3-3--3--3--3--|---------------------|
--3--3-3-3--3--3--3--|---------------------|--3--3-3-3--3--3--3--|


  ^  ^ v ^  ^  ^  ^     ^  ^ v ^  ^  ^  ^    
  E  S S E  E  E  E     E  S S E  E  E  E    
---------------------|--0--0-0-0--0--0--0--||
--1--1-1-1--0--0--0--|--1--1-1-1--1--1--1--||
--2--2-2-2--1--1--1--|--2--2-2-2--2--2--2--||
--3--3-3-3--2--2--2--|--2--2-2-2--2--2--2--||
--3--3-3-3--2--2--2--|--0--0-0-0--0--0--0--||
--1--1-1-1--0--0--0--|---------------------||

_____________________________________________
_____________________________________________




Melody : 


                                                      E  E   E  E  E   E   
E||-------|-----|-----|-----|-----|-----|-----||----------------8--7------|
B||-------|-----|-----|-----|-----|-----|-----||---9g10--9--10--------10--|
G||-------|-----|-----|-----|-----|-----|-----||*-------------------------|
D||-------|-----|-----|-----|-----|-----|-----||*-------------------------|
A||-------|-----|-----|-----|-----|-----|-----||--------------------------|
E||-------|-----|-----|-----|-----|-----|-----||--------------------------|


  Q    E  E  E  E        E  E   E  E  E   E      Q    E  Q.      
--7----------------|---------------8--7------|--10----7---------|
-------9-----7--9--|--9g10--9--10--------10--|-----------8------|
----------9--------|-------------------------|------------------|
-------------------|-------------------------|------------------|
-------------------|-------------------------|------------------|
-------------------|-------------------------|------------------|


      E   E   E   E   E   E      Q     E   E   E   E      Q     Q     E  E   
-----------------12--10------|--10--------------------|---------------------|
--12g13--12--13----------13--|--------12------10--12--|--13----12----10--9--|
-----------------------------|------------12----------|---------------------|
-----------------------------|------------------------|---------------------|
-----------------------------|------------------------|---------------------|
-----------------------------|------------------------|---------------------|


   H.                 H.              E    E  E  Q    E     E  E  E  Q    E   
-----------------||----------------|-------------5----5--|--4-----4--5----5--|
--10-------------||--10------------|--L-------5----------|-----7-------------|
----------------*||----------------|-----4g5-------------|-------------------|
----------------*||----------------|---------------------|-------------------|
-----------------||----------------|---------------------|-------------------|
-----------------||----------------|---------------------|-------------------|


  E  E  E  E  E  E     E  E  E  Q    E     E  E  E  Q    E   
--7--5--7--5--7--5--|--4-----4--5----5--|--L--------5----5--|
--------------------|-----7-------------|--------5----------|
--------------------|-------------------|-----5-------------|
--------------------|-------------------|-------------------|
--------------------|-------------------|-------------------|
--------------------|-------------------|-------------------|


  E  E  E  Q    E      E  E  E   E  E   E     H.              H.            
--4-----4--5----5--|--10--8--7------7------|---------------|--7------------|
-----7-------------|------------10-----10--|--9------------|---------------|
-------------------|-----------------------|---------------|---------------|
-------------------|-----------------------|---------------|---------------|
-------------------|-----------------------|---------------|---------------|
-------------------|-----------------------|---------------|---------------|


   H.               Q.     S S E  S S         E  E   E  E  E   E   
--10------------|--13------0---0--0---||----------------8--7------|
----------------|---------------------||---9g10--9--10--------10--|
----------------|-------------------8-||*-------------------------|
----------------|---------------------||*-------------------------|
----------------|---------------------||--------------------------|
----------------|---------------------||--------------------------|


  Q    E  E  E  E        E  E   E  E  E   E      Q    E  Q.      
--7----------------|---------------8--7------|--10----7---------|
-------9-----7--9--|--9g10--9--10--------10--|-----------8------|
----------9--------|-------------------------|------------------|
-------------------|-------------------------|------------------|
-------------------|-------------------------|------------------|
-------------------|-------------------------|------------------|


      E   E   E   E   E   E      Q     E   E   E   E      Q     Q     E  E   
-----------------12--10------|--10--------------------|---------------------|
--12g13--12--13----------13--|--------12------10--12--|--13----12----10--9--|
-----------------------------|------------12----------|---------------------|
-----------------------------|------------------------|---------------------|
-----------------------------|------------------------|---------------------|
-----------------------------|------------------------|---------------------|


   H.                E  S S E  E  E  E     E  E  E  E  E  E   
-----------------||--L------0--5--3--2--|--1--0--1-----0--1--|
--10-------------||--L----2-------------|-----------3--------|
----------------*||--L--2---------------|--------------------|
----------------*||--L------------------|--------------------|
-----------------||--L------------------|--------------------|
-----------------||---------------------|--------------------|


  Q    E  E  E  E     Q.     E  E  E     E  S S E  E  E  E   
--0-------------0--|------------0--1--|--L------0--5--3--2--|
-------1--1--3-----|--3------3--------|--L----2-------------|
-------------------|------------------|--L--2---------------|
-------------------|------------------|--L------------------|
-------------------|------------------|--L------------------|
-------------------|------------------|---------------------|


  E  E  E  E  E  E     Q    E  E  E  E     E  E  E  E  E  E     H.            
--1--0--1-----0--1--|--3----0--0--1--3--|--5--4--5--8--7--5--|--7------------|
-----------3--------|-------------------|--------------------|---------------|
--------------------|-------------------|--------------------|---------------|
--------------------|-------------------|--------------------|---------------|
--------------------|-------------------|--------------------|---------------|
--------------------|-------------------|--------------------|---------------|


                                  H        S S S  S    H.            
---------------|---------------|-----------7-8-7----|--7------------|
---------------|---------------|-----------------10-|---------------|
---------------|---------------|--------------------|---------------|
---------------|---------------|--------------------|---------------|
---------------|---------------|--------------------|---------------|
---------------|---------------|--------------------|---------------|


                                           ^ v ^ v                              
                                  H        S S S S         E  E   E  E  E   E   
---------------|---------------|-------------------||----------------8--7------|
---------------|---------------|-----------x-x-x-x-||---9g10--9--10--------10--|
---------------|---------------|-----------x-x-x-x-||*-------------------------|
---------------|---------------|-----------x-x-x-x-||*-------------------------|
---------------|---------------|-----------x-x-x-x-||--------------------------|
---------------|---------------|-------------------||--------------------------|


  Q    E  E  E  E        E  E   E  E  E   E      Q    E  Q.      
--7----------------|---------------8--7------|--10----7---------|
-------9-----7--9--|--9g10--9--10--------10--|-----------8------|
----------9--------|-------------------------|------------------|
-------------------|-------------------------|------------------|
-------------------|-------------------------|------------------|
-------------------|-------------------------|------------------|


      E   E   E   E   E   E      Q     E   E   E   E      Q     Q     E  E   
-----------------12--10------|--10--------------------|---------------------|
--12g13--12--13----------13--|--------12------10--12--|--13----12----10--9--|
-----------------------------|------------12----------|---------------------|
-----------------------------|------------------------|---------------------|
-----------------------------|------------------------|---------------------|
-----------------------------|------------------------|---------------------|


   H.                   E  E   E  E  E   E     Q    E  E  E  E   
-----------------||---------------8--7------|--7----------------|
--10-------------||--9g10--9--10--------10--|-------9-----7--9--|
----------------*||-------------------------|----------9--------|
----------------*||-------------------------|-------------------|
-----------------||-------------------------|-------------------|
-----------------||-------------------------|-------------------|


     E  E   E  E  E   E      Q    E  Q.            E   E   E   E   E   E   
---------------8--7------|--10----7---------|-----------------12--10------|
--9g10--9--10--------10--|-----------8------|--12g13--12--13----------13--|
-------------------------|------------------|-----------------------------|
-------------------------|------------------|-----------------------------|
-------------------------|------------------|-----------------------------|
-------------------------|------------------|-----------------------------|


   Q     E   E   E   E      Q     Q     E  E      H.             
--10--------------------|---------------------|----------------||
--------12------10--12--|--13----12----10--9--|--10------------||
------------12----------|---------------------|----------------||
------------------------|---------------------|----------------||
------------------------|---------------------|----------------||
------------------------|---------------------|----------------||

_________________________________________________________________
_________________________________________________________________




Bass :


                                           E  E  E  E  E  E   
F||-----|-----|-----|-----|-----|-----|----------------------|
C||-----|-----|-----|-----|-----|-----|--3g4-----------------|
G||-----|-----|-----|-----|-----|-----|----------5-----4--3--|
D||-----|-----|-----|-----|-----|-----|-------6-----2--------|


    E.  S E  E  E  E     Q    E  E  E  E     E.  S E  E  E  E   
|------------------0--|-------------------|--------------------|
|*--------------6-----|--4----4--2--0-----|-----------0--------|
|*--2-----------------|----------------4--|--2---2-2-----4--2--|
|-------2-2--2--------|-------------------|--------------------|


  E.  S E  E  E  E     E.  S E  E  E  E     Q    E  E  E  E   
------2-2-----------|--------------------|-------------0-----|
--------------------|--0---0----4--2--0--|----------------4--|
--0--------0--2--4--|--------0-----------|--0----0--0--------|
--------------------|--------------------|-------------------|


  E  E  E  E  E  E     E.  S E  E  E  E       E.  S E  Q.      
--------------------|---------------------||------------------|
--------5-----------|--------------------*||------------------|
-----5--------4--3--|--2---2-2-----------*||--2---2-2--2------|
--3--------2--------|-----------2--4--6---||------------------|


  Q    Q    Q       Q    E  Q    E     Q    E  Q    E     Q    E  Q    S S  
-----------------|------------------|------------------|-------------------|
-----------------|------------------|------------------|-------------------|
--2----2----2----|----------2----2--|------------------|----------2----2---|
-----------------|--2----2----------|--0----0--3----3--|--2----2-----------|


  Q    Q    Q       Q    E  Q    E     Q    E  Q    E     Q    Q    Q     
-----------------|------------------|------------------|-----------------|
-----------------|------------------|------------------|-----------------|
--2----2----2----|----------2----2--|------------------|-----------------|
-----------------|--2----2----------|--0----0--3----3--|--2----2----2----|


  Q    Q    Q       Q    Q    Q       Q.     S S E  S S      E.  S E  E  E  E   
-----------------|-----------------|--------------------||------------------0--|
-----------------|-----------------|--------------------||*--------------6-----|
-----------------|-----------------|--------------------||*--2-----------------|
--2----2----2----|--2----2----2----|--2------2---2--2-2-||-------2-2--2--------|


  Q    E  E  E  E     E.  S E  E  E  E     E.  S E  E  E  E   
-------------------|--------------------|------2-2-----------|
--4----4--2--0-----|-----------0--------|--------------------|
----------------4--|--2---2-2-----4--2--|--0--------0--2--4--|
-------------------|--------------------|--------------------|


  E.  S E  E  E  E     Q    E  E  E  E     E  E  E  E  E  E   
--------------------|-------------0-----|--------------------|
--0---0----4--2--0--|----------------4--|--------5-----------|
--------0-----------|--0----0--0--------|-----5--------4--3--|
--------------------|-------------------|--3--------2--------|


  E.  S E  E  E  E       E  E  E  E  E  E     E  E  E  E  E  E   
---------------------||--------4--3--------|-----4--6--7--8--9--|
--------------------*||-----4--------0--1--|--2-----------------|
--2---2-2-----------*||--2-----------------|--------------------|
-----------2--4--6---||--------------------|--------------------|


   E  Q    E  E  E     Q    E  E  E  E     E  E  E  E  E  E   
--11----------------|-------5--4--2-----|--------4--3--6-----|
------9----4--0-----|-------------------|-----4-----------4--|
-----------------2--|--3-------------0--|--2-----------------|
--------------------|-------------------|--------------------|


  E  E  E   E   E  E     E  E  E  E  E  E     E  E  E  E  E  E   
-----4--9------11-----|--7-----------------|-----------0--------|
--2--------12------9--|-----6--7-----------|--0--------------2--|
----------------------|-----------8--9-----|--------2-----------|
----------------------|-----------------9--|-----3--------3-----|


  H.              H.              Q.     Q.        H.            
---------------|---------------|----------------|---------------|
---------------|---------------|----------------|---------------|
---------------|---------------|----------------|---------------|
--2------------|--3------------|--5------3------|--2------------|


  H.              H.              Q.     Q.        H.            
---------------|---------------|----------------|---------------|
---------------|---------------|----------------|---------------|
---------------|---------------|----------------|---------------|
--2------------|--3------------|--5------3------|--2------------|


    E.  S E  E  E  E     Q    E  E  E  E     E.  S E  E  E  E   
|------------------0--|-------------------|--------------------|
|*--------------6-----|--4----4--2--0-----|-----------0--------|
|*--2-----------------|----------------4--|--2---2-2-----4--2--|
|-------2-2--2--------|-------------------|--------------------|


  E.  S E  E  E  E     E.  S E  E  E  E     Q    E  E  E  E   
------2-2-----------|--------------------|-------------0-----|
--------------------|--0---0----4--2--0--|----------------4--|
--0--------0--2--4--|--------0-----------|--0----0--0--------|
--------------------|--------------------|-------------------|


  E  E  E  E  E  E     E.  S E  E  E  E       E.  S E  E  E  E   
--------------------|---------------------||-----------------0--|
--------5-----------|--------------------*||--------------6-----|
-----5--------4--3--|--2---2-2-----------*||--2-----------------|
--3--------2--------|-----------2--4--6---||------2-2--2--------|


  Q    E  E  E  E     E.  S E  E  E  E     E.  S E  E  E  E   
-------------------|--------------------|------2-2-----------|
--4----4--2--0-----|-----------0--------|--------------------|
----------------4--|--2---2-2-----4--2--|--0--------0--2--4--|
-------------------|--------------------|--------------------|


  E.  S E  E  E  E     Q    E  E  E  E     E  E  E  E  E  E   
--------------------|-------------0-----|--------------------|
--0---0----4--2--0--|----------------4--|--------5-----------|
--------0-----------|--0----0--0--------|-----5--------4--3--|
--------------------|-------------------|--3--------2--------|


  E.  S E  E  E  E    
--------------------||
--------------------||
--2---2-2-----------||
-----------2--4--6--||








Duration Legend
---------------
W - whole
H - half
Q - quarter
E - 8th
S - 16th
T - 32nd
X - 64th
. - note dotted
|-n-|  - n-tuplets


Tablature Legend
----------------
L - tied note
x - dead note
g - grace note
(n) - ghost note
> - accentuded note
NH - natural harmonic
AH - artificial harmonic
TH - tapped harmonic
SH - semi harmonic
PH - pitch harmonic
h - hammer on
p - pull off
b - bend
br - bendRelease
pb - preBend
pbr - preBendRelease
brb - bendReleaseBend
\n/ - tremolo bar dip
\n - tremolo bar dive
-/n - tremolo bar Release up
/n\ - tremolo bar inverted dip
/n - tremolo bar return
-\n - tremolo bar Release down
S - shift slide
s - legato slide
/ -  slide into from below or out of upwards
\ -  slide into from above or out of downwards
~ - vibrato
W - wide vibrato
tr - trill
TP - tremolo picking
T - tapping
S - slap
P - pop
< - fade in
^ - brush up
v - brush down
Login or Register to remove this ad.

4 comments on Vamo' Alla Flamenco (Trio)

Two Words.

5

Simply. Awesome.

Magnificent. Perfect. Amazing. Unbeatable. Lulz

holy crap.

awesome tab.

Perfect!

5

That's amazing, thanks!

yes

a complete tab! very nice, and it sounds just like the game