Ads

Tetra Master (Final Fantasy IX) Bass Tab

Submitted: Aug 19, 2010 by auriplane (Last updated: Jun 04, 2013)

5
Average: 5 (1 vote)
Download | Listen
Game: Final Fantasy IX
Composer(s): Nobuo Uematsu
Style: Transcription
Series: Final Fantasy

This song is also called Quad Mist

AutoScroll: Slow | Medium | Fast
                                Final Fantasy 9 - Quad Mist BASS TAB
                                      Composed by Nobuo Uematsu
                            
                               Tabbed by auriplane ([email protected])


This song is also called "Tetra Master", I think.  Four-string bass, standard tuning. 


        Part A

G |------------------------|------------------------|------------------------|------------------------|
D |------------------------|------------------------|------------------------|------------------------|
A |3-----------------2-----|----------------2-3---5-|------------------------|----------------2-----5-|
E |----------------------5-|------------------------|--------------------5-4-|3---------5-------------|


G |------------------------|------------------------|------------------------|------------------------|
D |------------------------|------------------------|------------2---------2-|3---------3-5---------5-|
A |3-----------------2-----|----------------2-3---5-|----------5-------------|------------------------|
E |----------------------5-|------------------------|------------------------|------------------------|


G |------------------------|------------------------|------------------------|------------------------|
D |------------------------|------------------------|----------------------2-|------------------------|
A |----------------2-3---5-|----------------3-2-----|----------------2-3-----|----5-----------3-2-----|
E |5-----------------------|----------------------5-|------------------------|----------------------5-|


G |------------------------|------------------------|------------------------|------------------------|
D |------------------------|------------------------|3-----------4-----------|5-----------------------|
A |----------------2-3---5-|------------------------|------------------------|------------5-----------|
E |------------------------|------------------------|------------------------|------5-----------3-----|


        Part B

G |------------------------|------------------------|------------------------|------------------------|
D |------------------------|------------------------|------------------------|------------------------|
A |3-----------------------|--------------------3-2-|1-----------------------|----------------------1-|
E |------------------------|------------------------|------------------------|------------------------|


G |------------------------|------------------------|------------------------|------------------------|
D |------------------------|------------------------|------------------------|------------------------|
A |------------------------|------------------------|------------------------|------------------------|
E |5-----------------------|--------------------5-3-|2---------------------2-|3---------------------3-|


G |------------------------|------------------------|------------------------|------------------------|
D |------------------------|----2-3---5-------------|------------------------|----2-3---5-------------|
A |3-----------4-----------|5-----------------------|3-----------4-----------|5-----------------------|
E |------------------------|----------------3-----3-|------------------------|----------------3-----3-|


G |------------------------|------------------------|------------------------|------------------------|
D |------------------------|------------------------|2-----------3-----4-----|5-----3-----2-----------|
A |3-----------4-----------|5-----------6-----------|------------------------|------------------5-----|
E |------------------------|------------------------|------------------------|------------------------|

Login or Register to remove this ad.

3 comments on Tetra Master

It's a pure pleasure to have

5

It's a pure pleasure to have that tab and a pure leisure to play that tab.

THANK YOU SO MUCH auriplane !!!!

=D!!!

very nice

this song has a very nice bass line
tetra master was the name of the card game
the song is called quad mist

The game is called Quad Mist,

The game is called Quad Mist, which is why the song is called Quad Mist. In the English translation, they renamed it Tetra Master, so that should probably be the title of the song in English.