Song of Memories (Final Fantasy IX) Mandolin Tab

Submitted: Jun 03, 2009 by LoneCentrist (Last updated: Feb 04, 2010)

0
Download | Listen
Game: Final Fantasy IX
Composer(s): Nobuo Uematsu
Style: Transcription
Series: Final Fantasy

AutoScroll: Slow | Medium | Fast
Song of Memories
Final Fantasy IX
Composed by Nobou Uematsu
Tabbed by Rob Van
6/2/09

E|-------1-3-1------------1-6-1------------1-3-1------------1--8---6--|
A|---0-3-------3-0----1-5-------5-1----0-3-------3-0----1-4----11--10-|
D|-3----------------3----------------3----------------3---------------|
G|--------------------------------------------------------------------|

E|---------------------------------------------------------------------|
A|---0-1-----0---0-3-------0-1-0-1-5-0-------5-3-3-1-1-0---0-1---------|
D|-5-----2-----5-----5---5-----------------3-------------5-----0-3-5-2-|
G|---------------------------------------------------------------------|

E|---------------------------------------------------------------|
A|---0---0-3-------0-1-0-1-3-5-3----1-0-0--------3-1-1-0-0-------|
D|-----5-----5---5------------------------5-5--------------5-3-2-|
G|-5-------------------------------------------------------------|

E|------------------------------------------------------|
A|--------0---------------------1-0-0-------------------|
D|-3----5---2----2-3-2---0----0-------5-5----3-0--2-3-5-|
G|---------------------5--------------------------------|

E|-----------------------------------------------------|
A|--------0-3-----------1-0-0--------3-1-1-0-0---0-1-3-|
D|-3----5------5-2-0----------5-5--------------5-------|
G|-----------------------------------------------------|

E|---------------------|
A|-0----1-0------------|
D|----------2-5-5--3-3-|
G|---------------------|
Login or Register to remove this ad.