Sleepless City Treno (Final Fantasy IX) Guitar Tab

Submitted: Nov 25, 2009 by Klamath

5
Average: 5 (3 votes)
Download | Listen
Game: Final Fantasy IX
Composer(s): Nobuo Uematsu
Style: Transcription
Series: Final Fantasy

AutoScroll: Slow | Medium | Fast
Intro:
E|----------------------------------------------------------------------
B|----------------------------------------------------------------------
G|--0--2--4--5--4--2-----0--2--4--0---------------0--2--4--5--7-----12--
D|--------------------4------------------3--2--3------------------------
A|----------------------------------------------------------------------
E|----------------------------------------------------------------------

Main:
E|-----------------------------------------------------------------------------
B|-----------------------------------------------------------------------------
G|--------0--5--4----2--1--2--4--2--5----1--2--4--2--5--4----2-----0--2--4--0--
D|-----2--------------------------------------------------------4--------------
A|--3--------------------------------------------------------------------------
E|-----------------------------------------------------------------------------

E|------------------------------------------------------------0-----
B|---------------------------------------------------------------1--
G|--------0--5--4----2--1--2--4--2--5----1--2--5--4--2--------------
D|-----2------------------------------------------------5--3--------
A|--3---------------------------------------------------------------
E|------------------------------------------------------------------

       Part 2
E|----|-----------1--0--1--2---3-----5-----3--0--------
B|--2-|--3------------------------1-----1--------1-----
G|----|-----2--5------------------------------------0--
D|----|------------------------------------------------
A|----|------------------------------------------------
E|----|------------------------------------------------


E|--1--------0---------------------------------
B|--------0--------0--3--0----1----------------
G|-----0--------0----------------2-----2--0----
D|----------------------------------4----------
A|---------------------------------------------
E|---------------------------------------------


E|--1--------0--------------
B|--------0--------0--3--0--
G|-----0--------0-----------
D|--------------------------
A|--------------------------
E|--------------------------

E|-----------0--5----3--0--------------3------0
B|--1--0--1----------------1-----1--0-----1----
G|----------------------------2---------------0
D|---------------------------------------------
A|---------------------------------------------
E|---------------------------------------------


Repeat Part 2, then

E|---------------------------------------------0--3--2--1--0-----
B|-----------------------------2------------2-------------------3
G|--------------0--------0--3---------0--3-----------------------
D|-----------3--------3------------------------------------------
A|-----1--4--------4---------------------------------------------
E|--3------------------------------------------------------------

E|-------0-----------1--------0--5--8--5---1-------------0-----------------
B|----------1-----------0--1------------------3----0--------1--------------
G|----2--------2--1-----------------------------------2--------2--1--------
D|-------------------------------------------------------------------2--4--
A|-------------------------------------------------------------------------
E|-------------------------------------------------------------------------

E|---------------------------------------0---------------0--1--3--5--3--5--8--7--5--3--
B|-----------------0--1--2--4---1--3--4-----3--3--1------------------------------------
G|--0--2--1--2--3----------------------------------------------------------------------
D|-------------------------------------------------------------------------------------
A|-------------------------------------------------------------------------------------
E|-------------------------------------------------------------------------------------

E|--5--3--5--8--7--5--3--0--3--5--0----------------------3--1------------8--
B|-----------------------------------2-----3-----1--0----------3--1---------
G|--------------------------------------2-----2-----------------------------
D|--------------------------------------------------------------------------
A|--------------------------------------------------------------------------
E|--------------------------------------------------------------------------
Login or Register to remove this ad.

1 comment on Sleepless City Treno

The Tab

5

:D That's all i have to say about that..