Ads

Secret Library - Daguerreo (Final Fantasy IX) Guitar Tab

Submitted: Mar 09, 2014 by TheDoomOfAllFires (Last updated: Mar 09, 2014)

5
Average: 5 (3 votes)
Download | Listen
Game: Final Fantasy IX
Composer(s): Nobuo Uematsu
Style: Arrangement, Artificial harmonics, Fingerstyle
Series: Final Fantasy

AutoScroll: Slow | Medium | Fast
"Secret Library ~ Daguerreo" - Final Fantasy IX
Composer : Nobuo Uematsu
Arrangement : TheDoomOfAllFires
BPM : 110
Tuning : Standard EADGBE



E ||-0--3-------|--0--5--3----|--0--1-------|--0----|--0--3-------|
B ||-1-----3----|--------0----|--1-----3----|--1----|--1-----3----|
G ||o0-----0----|--0--5-------|--0--2--0----|--0----|--0-----0----|
D ||o-----------|-----3-------|-------------|-------|-------------|
A ||-3-----2----|--3----------|--3--3--2----|--3----|--3-----2----|
E ||------------|-------------|-------------|-------|-------------|


--0--5--3----|--0--1-------|------|||-------------0--3----|
--1-----0----|--1-----3----|--1---|||-1--------1----------|
--2--2-------|--2-----0----|--0--o|||o0-------------------|
-----2-------|--3----------|--2--o|||o2-------------------|
--0----------|-------------|--3---|||-3-------------------|
-------------|-------------|------|||---------------------|


--8-----8-------------|--------------5-------|--3-----3-----0--1----|
-----------8-----8----|--10------------------|--------0--3--1-------|
--------9-----9-------|--------5-------------|--------0-------------|
--------------10------|-----7----------------|-----0----------------|
-----10---------------|--8-------------------|----------------------|
--8-------------------|----------------------|--3-------------------|


--0-----------0--3----|--8-----8--------6----|--5-----1----|--0---------||
--------1-----1-------|-----------8----------|-----3-------|--------3---||
--------0-----0-------|--------9-----9-------|-----2-------|--------4--o||
-----2-----2----------|--------------10------|-------------|-----3-----o||
--3-------------------|-----10---------------|-------------|--2---------||
----------------------|--8-------------------|--1----------|------------||


-------|-----3--1----|--0-----------0-------|--------3--------1----|--0----|
--1----|--3----------|--1-----1--3----------|--3-------------------|--1----|
--0----|--0----------|--0-------------------|--0-------------------|--0----|
--2----|--0----------|--2-------------------|--0-------------------|--2----|
--3----|--2----------|--3-------------------|--2-------------------|--3----|
-------|-------------|----------------------|----------------------|-------|


-----3--1----|--0-----------0-------|-----------0--1-------|-----3-------|
--3----------|--1-----1--3----------|--3-----3-------------|-------------|
--0----------|--0-------------------|--0-----0-------------|-------------|
--0----------|--2-------------------|--0-------------------|-------------|
--2----------|--3-------------------|--2-------------------|-------------|
-------------|----------------------|----------------------|-------------|


-----3--1----|--0-----------0-------|--------3--------1----|--0----|
--3----------|--1-----1--3----------|--3-------------------|--1----|
--0----------|--0-------------------|--0-------------------|--0----|
--0----------|--2-------------------|--0-------------------|--2----|
--2----------|--3-------------------|--2-------------------|--3----|
-------------|----------------------|----------------------|-------|


--0--5--3----|--1--------0--1-------|--2--7--5----|--3--5--7----|
-------------|--3-----3-------------|--0----------|--0----------|
--2----------|--------2-------------|-------------|--------7----|
--2----------|--0-------------------|--1----------|--2-----0----|
--4----------|----------------------|-------------|-------------|
-------------|----------------------|-------------|-------------|


--8-----8-------------|--------------5-------|--3-----3-----0--1----|
-----------8-----8----|--10------------------|--------0--3--1-------|
--------9-----9-------|--------5-------------|--------0-------------|
--------------10------|-----7----------------|-----0----------------|
-----10---------------|--8-------------------|----------------------|
--8-------------------|----------------------|--3-------------------|


--0-----------0--3----|--8-----8--------6----|--5-----1----|--0----------|
--------1-----1-------|-----------8----------|-----3-------|--------3----|
--------0-----0-------|--------9-----9-------|-----2-------|--------4----|
-----2-----2----------|--------------10------|-------------|-----3-------|
--3-------------------|-----10---------------|-------------|--2----------|
----------------------|--8-------------------|--1----------|-------------|


-------||
--1----||
--0----||
--2----||
--3----||
-------||


Legend
L - tied note
x - dead note
h - hammer on/pull off
b - bend
s - slide
~ - vibrato
g - ghost note
> - accentuated note
t - trill
M - palm mute
. - staccato
P - popping (bass)
S - slapping (bass)
+ - tapping
W - wide vibrato
< - fade in
w - whammy bar
= - tremolo picking
v - brush up
^ - brush down
V - pick stroke up
n - pick stroke down
Login or Register to remove this ad.

1 comment on Secret Library - Daguerreo

this tab is fantastic and

5

this tab is fantastic and easy to play. really captures the essence of the original song.
good job!