Searching for the Princess (Final Fantasy IX) Guitar Tab

Submitted: Jan 08, 2014 by Colin_spade

5
Average: 5 (5 votes)
Download | Listen
Game: Final Fantasy IX
Composer(s): Nobuo Uematsu
Style: Arrangement, Artificial harmonics, Fingerstyle
Series: Final Fantasy

AutoScroll: Slow | Medium | Fast
                          Searching For The Princess                            


                                                                   Nobuo Uematsu
Track 1



     Q    Q    Q       E  E  E  E  E  E     Q    Q    E  E     Q    Q    Q     
E||--3----3----3----|--3--------0--1--3--|--5----7-------5--|--3--------------|
B||--5----3----1----|--0-----------------|---------------0--|--1--------------|
G||-----------------|--------------------|--5----7----------|-----------------|
D||-----------------|--------------0--2--|--3---------------|--2----0---------|
A||--3----2----0----|-----0--2--3--------|-------8----8-----|------------3----|
E||-----------------|--3-----------------|------------------|-----------------|


  E  E   E  E  E  E     E  E  E  E  E  E     E  E  E  E  E  E   
--1---------5--3--1--|--0-----0--3--1--0--|-----------1--0--1--|
-----3s--6-----------|-----1--------------|--3--1--3-----------|
---------------------|--------------------|--------------------|
--0---------3--2--0--|-----------2--0-----|--------------------|
---------------------|--3--------------3--|--2-----------------|
---------------------|--------------------|--------3-----------|


  E  E  E  E  E  E     Q    Q    Q       E  E  E  E  E  E     Q    Q    E  E   
--3-----------0--1--|--3----3----3----|--3--------0--1--3--|--5----7-------5--|
-----0--1--3--------|--5----3----1----|--0-----------------|---------------4--|
--------------------|-----------------|--------------------|------------------|
-----------------0--|-----------------|--------------0--2--|--3----4----------|
--------0--2--3-----|--3----2----0----|-----0--2--3--------|------------6-----|
--------------------|-----------------|--3-----------------|------------------|


  E  E  E  E  E  E     E  E   E  E  E  E     E  E  E  E  E  E   
--3-----------------|--1---------5--3--1--|--0-----0--3--1--0--|
--0-----------------|-----3s--6-----------|-----1--------------|
--------0-----------|---------------------|--------------------|
--2--4-----4--2-----|--0---------3--2--0--|-----------2--0-----|
-----------------2--|---------------------|--3--------------3--|
--------------------|---------------------|--------------------|


  E  E  E  E  E  E     Q    H           Q    Q    Q       Q    E  E  E  E   
-----------5--3-----|----------------|-------3----1----|--3-------------3--|
--3--0--3--------0--|--1-------------|-------4----3----|--4-------4--6-----|
--------------0-----|----------------|--5----5----4----|--3----------------|
--------3-----------|----------------|-----------------|-------------------|
--2-----------------|--3----3--------|--3--------------|-------3-----------|
-----3-----------3--|----------------|-----------------|-------------------|


  Q    E  E  E  E     E  E  E  E  E  E     Q    Q.     E     Q    E  E  E  E   
--4----6--------4--|--3-----------------|--1----3---------|-------------------|
-------------------|--------------------|--0----0---------|--4----------3--4--|
-------------------|--------------0-----|--0----0---------|--5-------5--------|
-------0-----0--3--|--1--0--1--3--------|--------------3--|-------------------|
----------3--------|-----------------3--|-----------------|-------------------|
-------------------|--------------------|--3----3---------|--3----3-----------|


  Q    Q.     E     Q    Q    Q       Q    Q    Q       Q    E  E  E  E   
-----------------|-----------------|-------3----1----|--3-------------3--|
--3----4------3--|--6----4----3----|-------4----3----|--4-------4--6-----|
--4----4---------|-----------------|--5----5----4----|--3----------------|
-----------------|--3--------------|-----------------|-------------------|
-----------------|-------0----2----|--3--------------|-------3-----------|
--3----3---------|--3--------------|-----------------|-------------------|


  Q    E  E  E  E     E  E  E  E  E  E     Q    Q.     E     Q    E  E  E  E   
--4----6--------4--|--3-----------------|--1----3---------|-------------------|
-------------------|--------------------|--0----0---------|--4----------3--4--|
-------------------|--------------0-----|--0----0---------|--5-------5--------|
-------0-----0--3--|--1--0--1--3--------|--------------3--|-------------------|
----------3--------|-----------------3--|-----------------|-------------------|
-------------------|--------------------|--3----3---------|--3----3-----------|


  Q    E  E  E  E     H.              E  E   E  E  H         
-------------------|---------------|--8---------8--7--------|
--3----4--------3--|--1------------|--------10--------------|
--4----4-----------|---------------|-----9---------0--------|
-------------------|---------------|--7------------7--------|
-------------0--2--|--3------------|------------------------|
--3----3--L--------|---------------|------------------------|


              ^                                                                 
  E  E  E  E  H           E  E  E  E  E  E   E  E     E  E  E   E  E  E  E  E   
--5--------5--4--------|-----0-----3--5-----10--8--|--6------------------6--5--|
--------6--------------|--6-----6--------6---------|------------------6--------|
-----5-----------------|---------------------------|---------------7-----------|
--3-----------2--------|---------------------------|--------8--10--------------|
--------------2--------|--3-----------3------------|-----8---------------------|
-----------------------|---------------------------|--6------------------------|


                               ^                                          
              |--3--|                                                     
  H        E  S  S  S E  E     H        Q    Q       S S E  H.            
--4--------L--4h-5p-4-2--4--|--5------------------|--5-------------------|
----------------------------|----------------0----|----0-----------------|
--4-------------------------|--7--------6---------|--6---6--L------------|
--2-------------------------|--7------------------|----------------------|
----------------------------|--0------------------|--0-------------------|
----------------------------|---------------------|----------------------|


  E  E  E  E  E  E  E  E     E  E  E  E  E  E  E  E   
--------------------0-----|--------------0-----------|
--1-----------------------|--0-----------------------|
--------------2-----------|--------------0-----------|
--------2-----------2-----|--------2-----------2-----|
--0--3-----3-----3-----3--|-----2-----2-----2-----2--|
--------------------------|--3-----------------------|


  E  E  E  E  E  E  E  E     E  E  E  E  E  E  E  E   
--------------------------|--------------------------|
--------------------------|--------------------------|
--2-----------------------|--------------------------|
--------3-----2--0--2--4--|-----------0--2--0--2--3--|
-----3-----3--------------|--3--2--3-----------------|
--1-----------------------|--------------------------|


  E  E  E  E  E  E  E  E     E  E  E  E  E  E  E  E     Q    Q    Q    Q     
--0-----------------2-----|--3-----------2-----0-----|----------------------|
--------------------------|--------------------------|----------------------|
--------0-----------0-----|--------------------------|--2--------------0----|
-----2-----2-----2-----2--|--2-----------2-----------|------------3---------|
--3-----------3-----------|--------2-----------2-----|-------3--------------|
--------------------------|-----3-----3-----3-----3--|--1-------------------|


  H        Q    Q       E  E  E  E  E  E  E  E     E  E  E  E  E  E  E  E   
---------------------|--------------------0-----|--------------------------|
---------------------|--------------------------|--0-----------------------|
--2--------0---------|--2-----0-----2-----------|--------------------2-----|
----------------3----|--0-----------0-----------|--------0-----0-----------|
---------------------|--------0-----------0-----|-----2-----2-----3--2--0--|
---------------------|-----1-----1-----1-----1--|--3-----------------------|


  E  E  E  E  E  E  E  E     E  E  E  E  Q    Q       E  E  E  E  E  E  E  E   
--------------------0-----|------------------------|--------------------------|
--0-----------0-----------|-------------------0----|--1-----------0-----------|
--------2-----------------|--2-----------2---------|--------------------2-----|
--2-----------2-----------|--------------3----2----|--0-----------2-----------|
--------2-----------2-----|-----0--3--0------------|--------0-----------0-----|
-----3-----3-----3-----3--|--1---------------------|-----1-----1-----1-----1--|


                                                                    ^    ^     
  E  E  E  E  E  E  E  E     E  E  E  E  E  E  E  E     E  E  E  E  Q    Q     
--------------------------|--------------------------|------------------------|
--------------------------|--0-----1-----------------|--------------1----3----|
--0-----------------0-----|--------------2-----------|--------------2----4----|
--------------2-----------|--------------2-----------|--3-----------3----2----|
--------2-----------2-----|-----0--3--0-----0--3--0--|-----0--3--0------------|
-----3-----3-----3-----3--|--1-----------------------|------------------------|


  E  E  E  E  E  E  E  E     E  E  E  E  E  E  E  E   
--0-----------------------|--------------------------|
--1-----------3-----1-----|--0-----------------------|
--------------4-----2-----|--0-----------0-----------|
--0-----------0-----------|--2-----------2-----------|
--------0-----------0-----|--------2-----------2-----|
-----1-----1-----1-----1--|-----3-----3-----3-----3--|


  E  E  E  E  E  E  E  E     W                   H.           Q     
-----------------------0--|-------------------|--1------------5----|
--1--------3--------3-----|-------------------|--------------------|
--2-----2--------2--------|--2----------------|--2-----------------|
-----2--------2-----------|-------------------|--0-----------------|
--0-----------------------|--0----------------|--------------------|
--------------------------|-------------------|--------------------|


                       ^                                                 
                                                      |--3--|  |--3--|   
  H        H           H        Q    Q       H        E  E  E  E  E  E   
--0--------5--------|---------------------|-----------------------------|
--------------------|--3------------------|-----------------------------|
--2-----------------|--2--------0---------|-----------------------0--2--|
--------------------|----------------3----|--2-----------0--2--3--------|
--3-----------------|--1------------------|-----------1--------0--------|
--------------------|---------------------|-----------------------------|


  H.             Q         H          H             Q.       E    H         
----------------------|------------------------|--<>3----------------------|
---------------<>3----|-------------<>3--------|-----------<>4-------------|
--3-------------------|--<>2-------------------|----------------<>3--------|
--0-------------------|------------------------|----1-------------0--------|
----------------------|------------------------|---------------------------|
--3-------------------|----1-------------------|---------------------------|


  H        Q    Q         Q.       E    H           H        Q    Q     
---------------------|--<>3----------------------|---------------------|
---------------------|-----------<>4-------------|--L------------------|
---------------------|----------------<>3--------|--L--------0----2----|
----------------0----|---------------------------|---------------------|
--3--------1---------|----3----------------------|---------------------|
---------------------|---------------------------|---------------------|


  E  E  E  E  E  E  E  E     E  E  E  E  E  E  E  E   
--------------------------|--------------------------|
--0-----------------------|--------0-----1--0--------|
-----------0--------------|--------------------2--0--|
-----0-----0--0--------0--|-----0-----0-----0-----0--|
--2-----2-----2--L--2-----|--2-----2-----2-----2-----|
--3-----------------------|--3-----------------------|


  E  E  E  E  E  E  E  E     E  E  E  E  E  E  E  E   
--------------------------|--------------------------|
--0--------1--------------|--------------------------|
--------------2-----------|--------------0-----2-----|
--------------------------|--------------------------|
--0--3--0--3--0--3--0--3--|--0--3--0--3--0--3--0--3--|
--1-----------------------|--1-----------------------|


  E  E  E  E  E  E  E  E     E  E  E  E  E  E  E  E   
--------------------------|--------------------------|
--0-----------------------|--------0-----1--0--------|
-----------0--------------|--------------------2--0--|
-----0-----0--0--L-----0--|-----0-----0-----0-----0--|
--2-----2-----2--L--2-----|--2-----2-----2-----2-----|
--3-----------------------|--3-----------------------|


                                                        ^                      
  E  E  E  E  E  E  E  E     E  E  E  E  E  E  E  E     Q    Q    E  E  E  E   
--------------------------|--------------------------|------------------5-----|
--3-----------3-----------|--------------------------|--3----1----3-----------|
--------------------------|--------------------------|------------------------|
--0--------3--------------|--0-----------------------|--3---------------------|
-----0-----0-----0-----0--|-----0-----0-----0-----0--|--1------------0--------|
--1-----1-----1-----1-----|--1-----1-----1-----1-----|------------------3--1--|


                                              ^                 
  H        H           Q    Q    Q    Q       W                 
--0-----------------|--0---------0----5----|-------------------|
--------------------|-------3--------------|--3----------------|
--0-----------------|--0-------------------|--2----------------|
--------------------|----------------------|--3----------------|
--3--------1--------|--0----1----3----0----|--1----------------|
--------------------|----------------------|-------------------|


  H        Q    Q       H        Q    Q       H        Q    Q     
----------------0----|--1--------0---------|---------------------|
--L--------3---------|----------------3----|---------------------|
--L------------------|---------------------|--5--------3----1----|
--L--------3---------|--0------------------|---------------------|
--L--------1---------|--1--------2---------|--3--------1---------|
---------------------|-----------4---------|--4--------2---------|


  ^                   ^                   ^                 
  W                   W                   W                 
-------------------|-------------------|-------------------|
-------------------|--3----------------|--3----------------|
--0----------------|--5----------------|--4----------------|
--0----------------|--3----------------|--3----------------|
--3----------------|-------------------|-------------------|
--3----------------|--3----------------|--3----------------|


  W                   
--------------------||
--L-----------------||
--L----------------*||
--L----------------*||
--------------------||
--L-----------------||




Duration Legend
---------------
W - whole
H - half
Q - quarter
E - 8th
S - 16th
T - 32nd
X - 64th
. - note dotted
|-n-|  - n-tuplets


Tablature Legend
----------------
L - tied note
x - dead note
g - grace note
(n) - ghost note
> - accentuded note
NH - natural harmonic
AH - artificial harmonic
TH - tapped harmonic
SH - semi harmonic
PH - pitch harmonic
h - hammer on
p - pull off
b - bend
br - bendRelease
pb - preBend
pbr - preBendRelease
brb - bendReleaseBend
\n/ - tremolo bar dip
\n - tremolo bar dive
-/n - tremolo bar Release up
/n\ - tremolo bar inverted dip
/n - tremolo bar return
-\n - tremolo bar Release down
S - shift slide
s - legato slide
/ -  slide into from below or out of upwards
\ -  slide into from above or out of downwards
~ - vibrato
W - wide vibrato
tr - trill
TP - tremolo picking
T - tapping
S - slap
P - pop
< - fade in
^ - brush up
v - brush down
Login or Register to remove this ad.

4 comments on Searching for the Princess

Nice job !

5

I like how this track has a definite feel of classic guitar, your tab style fits it very nicely.

thank you c:

thank you c:

Nice tab,I played some notes

Nice tab,I played some notes and it played very well in my old acoustic guitar. I need more tabs for my practice, thanks for the tab

  • Wagering is far more paying at this unique on the net wagering internet site when compared with other online casino spelen and they are definitely enjoyable and attention-grabbing too.

Thank you. I arranged this

Thank you. I arranged this piece specifically for the classical guitar :)