Ads

The Place I'll Return to Someday (Final Fantasy IX) Guitar Tab

Submitted: Mar 13, 2011 by Max_depa

5
Average: 5 (5 votes)
Download | Listen
Game: Final Fantasy IX
Composer(s): Nobuo Uematsu
Style: Arrangement, Fingerstyle
Series: Final Fantasy

AutoScroll: Slow | Medium | Fast
The place i'll return someday - Final Fantasy IX
Arranged by: Max_depa
Composed by: Nobuo Eumatsu    

Capo: 5

     E.  S E  E  Q    E  S S    E  E  E  S S E  E  E  E   
E||--------------0-------2-3-|--2--0-------0-------------|
B||------0-1--3--------------|--------3------1--0--------|
G||--2-----------------------|---------------------2--0--|
D||-------------------2--0---|---------------------------|
A||--------0--2--0-----------|--2--2-----0---------------|
E||--------------------------|---------------------------|


  E.  S E  E  Q.     S S    E  E  E  E  E  S S Q       E.  S E  E  Q    E  S S  
--------------0------2-3-|--2--0--0-----0-----------|--------------0-------2-3-|
------0-1--3-------------|-----------4--------------|------0-1--3--------------|
--2----------------------|--------------------------|--2-----------------------|
-------------------------|-------------------0-2----|-------------------2--0---|
--0--------2--0------2---|--2-----0--2-----3--------|--------0--2--0-----------|
-------------------------|--------------------------|--------------------------|


  E  E  E  S S E  E  E  E     E.  S S S S S E  E  E.  S  
--2--0-------0-------------|-------------------0--------|
--------3------1--0--------|--1---1-3-1-0---------0---3-|
---------------------2--0--|--------------2-0-----------|
---------------------------|----------------------------|
--2--2-----0---------------|--0-----2----------0--2-----|
---------------------------|----------------------------|


  E  E  E  E  H           Q    E  E  E  S S E  E     E  S S E  E  Q    Q     
-----------------------|--5----0--5--3----2-0-----|--0------0--2--3----3----|
--1--0--0--------------|-----------------------3--|-----1-3-----------------|
--------------2--------|--------------------------|-------------------------|
-----------------------|--------------------------|-------------------------|
--0--2-----2--0--------|--0----2--3--2--3---0-----|--3------0--2--2---------|
-----------------------|--------------------------|--------------------3----|


  Q    E  E  E  S S E  E     E  E  E  S S Q    Q       Q    E  E  E  S S E  E   
--5----0--5--3----2-0-----|-----0-------------------|--5----0--5--3----2-0-----|
-----------------------3--|--1-----0----------------|-----------------------3--|
--------------------------|-----------2-1-2----2----|--------------------------|
--------------------------|-------------------------|--------------------------|
--0----2--3--2--3---0-----|--3--0--2--2---0----0----|--0----2--3--2--3---0-----|
--------------------------|-------------------------|--------------------------|


  E  S S E  E  Q    Q       Q    E  E  E  S S E  E     E  E  E  S S H           
--0------0--2--3----3----|--5----0--5--3----2-0-----|-----0-------------------||
-----1-3-----------------|-----------------------3--|--1-----0----------------||
-------------------------|--------------------------|-----------2-1-2--------*||
-------------------------|--------------------------|------------------------*||
--3------0--2--2---------|--0----2--3--2--3---0-----|--3--0--2--2---0---------||
--------------------3----|--------------------------|-------------------------||




Duration Legend
---------------
W - whole
H - half
Q - quarter
E - 8th
S - 16th
T - 32nd
X - 64th
. - note dotted
|-n-|  - n-tuplets


Tablature Legend
----------------
L - tied note
x - dead note
g - grace note
(n) - ghost note
> - accentuded note
NH - natural harmonic
AH - artificial harmonic
TH - tapped harmonic
SH - semi harmonic
PH - pitch harmonic
h - hammer on
p - pull off
b - bend
br - bendRelease
pb - preBend
pbr - preBendRelease
brb - bendReleaseBend
\n/ - tremolo bar dip
\n - tremolo bar dive
-/n - tremolo bar Release up
/n\ - tremolo bar inverted dip
/n - tremolo bar return
-\n - tremolo bar Release down
S - shift slide
s - legato slide
/ -  slide into from below or out of upwards
\ -  slide into from above or out of downwards
~ - vibrato
W - wide vibrato
tr - trill
TP - tremolo picking
T - tapping
S - slap
P - pop
< - fade in
^ - brush up
v - brush down
Login or Register to remove this ad.

3 comments on The Place I'll Return to Someday

Amazing

5

Cool. Now all I need to buy is a capo :P

thanks, happy picking!^^

thanks, happy picking!^^

Perfect!

5

Perfect!