Ads

Over That Hill (Final Fantasy IX) Guitar Tab

Submitted: Jun 17, 2010 by Daugreano (Last updated: Jan 25, 2012)

5
Average: 5 (3 votes)
Download | Listen
Game: Final Fantasy IX
Composer(s): Nobuo Uematsu
Style: Alternate picking, Transcription
Series: Final Fantasy

AutoScroll: Slow | Medium | Fast
Song: Over The Hill
Game: Final Fantasy IX
Composer: Nobuo Uematsu
Tabbed by: Daugreano


Guitar:                                                       
   H     Q    Q      H     Q    Q      Q    Q    Q    Q      H  Q   Q      Q    Q    Q    Q
E|-----------------|-----------------|---------------------|-------------|---------------------|
B|-----------------|-----------------|---------------------|-------------|---------------------|
G|-4-----4----2----|-0-----0---------|-----------0----2----|-------------|-----------0---------|
D|-----------------|------------4----|-2----4--------------|-0------0----|-2----4---------2----|
A|-----------------|-----------------|---------------------|-------------|---------------------|
E|-----------------|-----------------|---------------------|-------------|---------------------|
                                                
   Q    Q    Q    Q      Q    Q    Q    Q      H  Q   Q      H     Q    Q      Q    Q    Q    Q
E|---------------------|---------------------|-------------|-----------------|---------------------|
B|---------------------|---------------------|-------------|-3-----3----5----|-3-------------------|
G|-----------0----4----|-5----4----0----4----|-2------4----|-----------------|------5----5----4----|
D|-2----0--------------|---------------------|-------------|-----------------|---------------------|
A|---------------------|---------------------|-------------|-----------------|---------------------|
E|---------------------|---------------------|-------------|-----------------|---------------------|
                                          
   Q    Q    Q    Q      H  Q   E   E     H  Q   E   E     H     E   E   E   E
E|---------------------|----------------|----------------|-----------------------|
B|---------------------|----------------|----------------|-----------------------|
G|-4----2----2----4----|-5------4---2---|-0--------------|-0---------2---4---2---|
D|---------------------|----------------|--------0---2---|-----------------------|
A|---------------------|----------------|----------------|-----------------------|
E|---------------------|----------------|----------------|-----------------------|

   W        H   Q  Q      H     Q    Q      H     Q    Q      Q    Q    Q    Q
E|--------|-------------|-----------------|-----------------|---------------------|
B|--------|-------------|-12----12---10---|-8-----8----7----|-5----7----8----10---|
G|-0------|--------7----|-----------------|-----------------|---------------------|
D|--------|-------------|-----------------|-----------------|---------------------|
A|--------|-------------|-----------------|-----------------|---------------------|
E|--------|-------------|-----------------|-----------------|---------------------|
    
   H  Q   Q      Q    Q    Q    Q      Q    Q    Q    Q      Q    Q    Q    Q
E|-------------|---------------------|---------------------|---------------------|
B|-------------|-5----7----8----5----|-5---------8----12---|-13---12---8----12---|
G|-7------7----|---------------------|------7--------------|---------------------|
D|-------------|---------------------|---------------------|---------------------|
A|-------------|---------------------|---------------------|---------------------|
E|-------------|---------------------|---------------------|---------------------|

   H     Q    Q      H     Q    Q      Q    Q    Q    Q      Q    Q    Q    Q
E|-----------------|-----------------|---------------------|---------------------|
B|-10---------12---|-15----15---17---|-15---13---13---12---|-12---10---10---12---|
G|-----------------|-----------------|---------------------|---------------------|
D|-----------------|-----------------|---------------------|---------------------|
A|-----------------|-----------------|---------------------|---------------------|
E|-----------------|-----------------|---------------------|---------------------|

   H     Q    E   E     H  Q   E   E     H     E   E   E   E     W        W
E|--------------------|----------------|-----------------------|--------|--------|
B|-13---------12--10--|-8----------5---|-8---------10--12--10--|-8------|--------|
G|--------------------|--------7-------|-----------------------|--------|--------|
D|--------------------|----------------|-----------------------|--------|--------|
A|--------------------|----------------|-----------------------|--------|--------|
E|--------------------|----------------|-----------------------|--------|--------|

   Q    Q    Q    Q      Q    E   H     E     W        Q    Q    Q    Q      Q    E   H     Q   
E|-8----7----5---------|----------5---------|--------|-10---8----7----5----|-4----5---7---------|
B|----------------8----|-7----8-------------|--------|---------------------|--------------------|
G|---------------------|--------------------|--------|---------------------|--------------------|
D|---------------------|--------------------|--------|---------------------|--------------------|
A|---------------------|--------------------|--------|---------------------|--------------------|
E|---------------------|--------------------|--------|---------------------|--------------------|
            
   W        H     H       W        Q    Q    Q    Q      Q    Q    Q    Q      W 
E|--------|-8-----7-----|-5------|------7----8----7----|-5-------------------|-7------|
B|--------|-------------|--------|---------------------|------8----7----8----|--------|
G|--------|-------------|--------|---------------------|---------------------|--------|
D|--------|-------------|--------|---------------------|---------------------|--------|
A|--------|-------------|--------|---------------------|---------------------|--------|
E|--------|-------------|--------|---------------------|---------------------|--------|

   H     Q    Q      W        W        H  Q   Q
E|-------10---8----|-5------|--------|-------------|
B|-----------------|--------|--------|-------------|
G|-----------------|--------|--------|-------------|
D|-----------------|--------|--------|--------0----|
A|-----------------|--------|--------|-------------|
E|-----------------|--------|--------|-------------|

Then Repeat...


Login or Register to remove this ad.

1 comment on Over That Hill

Awesome awesome thank you!

5

Awesome awesome thank you!