Ads

Memoria (Final Fantasy IX) Guitar Tab

Submitted: Jul 28, 2011 by Cassady1AndOnly

5
Average: 5 (1 vote)
Download | Listen
Game: Final Fantasy IX
Composer(s): Nobuo Uematsu
Style: 2 or more instruments, Transcription
Series: Final Fantasy

This song is also called Place of Memories

AutoScroll: Slow | Medium | Fast
Memoria (Song of Memory)
Final Fantasy 9
Composed by Nobuo Uematsu
Tabbed by Cassady1AndOnly
Created July 26, 2011                       75 BPM

This part is repeated through the whole song. It should be one octave lower though, but this will work.

e||------------0-----------|
B||---------------3--0-----|
G||---0-----2-----------0--|
D||------3-----------------| X-36
A||0-----------------------|
E||------------------------|

Here is the rest of the song played over the repeating previous part.

e||------------------------|------------------------|------------------------|
B||------------------------|------------------------|------------------------|
G||------------------------|------------------------|------------------------|
D||---2-----3-----3-----0--|---2-----3-----3--5--3--|---2-----3-----3-----0--|
A||------3-----------------|------3-----------------|------3-----------------|
E||------------------------|------------------------|------------------------|

e||------------------------|5-----------------------|7--------------------8--|
B||------------------------|------------------------|------------------------|
G||------------------------|5-----------------------|7--------------------9--|
D||---2-----3-----3--5--3--|------------------------|------------------------|
A||------3-----------------|------------------------|------------------------|
E||------------------------|------------------------|------------------------|

e||5-----------------------|------------------------|---------0--------------|
B||------------------------|------------------------|0--3--------------------|
G||5-----------------------|------------------------|------------------------|
D||------------------------|------------------------|------3-----------------|
A||------------------------|------------------------|------------------------|
E||------------------------|------------------------|------------------------|

e||---------0--0--1-----7--|------------0--1-----7--|------------------------|
B||0--3--------------0-----|------------------0-----|------------------------|
G||------3-----------------|------------------------|------------------------|
D||------------------------|------------------------|------------------------|
A||------------------------|------------------------|------------------------|
E||------------------------|------------------------|------------------------|

e||5-----------8-----------|7-----------10----------|8-----------12----------|
B||------------------------|------------------------|------------------------|
G||5-----------9-----------|7-----------10----------|9-----------12----------|
D||------------------------|------------------------|------------------------|
A||------------------------|------------------------|------------------------|
E||------------------------|------------------------|------------------------|

e||10----------13----------|12----------------------|------------------------|
B||------------------------|------------------------|------------------------|
G||10----------14----------|14----------------------|------------------------|
D||------------------------|------------------------|------------------------|
A||------------------------|------------------------|------------------------|
E||------------------------|------------------------|------------------------|

e||------------5--7--5--7--|5-----------------------|0--1-----7--5--3-----0--|
B||------------------------|------------------------|------0-----------3-----|
G||------------5--7--5--7--|5-----------------------|------------------------|
D||------------------------|------------------------|------------------------|
A||------------------------|------------------------|------------------------|
E||------------------------|------------------------|------------------------|

e||1-----------------------|0--1--------------------|------------------------|
B||------------------------|------1-----------0--3--|1-----------------------|
G||------------------------|---------------2--------|---4p3p2----------------|
D||------------------------|------------------------|------------------------|
A||------------------------|------------------------|------------------------|
E||------------------------|------------------------|------------------------|

e||0--1-----7--5-----10-8--|1-----------------------|0--1--------------------|
B||------0--------3--------|------------------------|------1-----------0-----|
G||------------------------|------------------------|---------------2--------|
D||------------------------|------------------------|---------------------3--|
A||------------------------|------------------------|------------------------|
E||------------------------|------------------------|------------------------|

e||------------------------|7-----8-----5-----------|------1-----0-----------|
B||------------------------|------------------------|3-----------------------|
G||---0h1h2----------------|------------------------|------------------------|
D||2-----------------------|------------------------|------------------------|
A||------------------------|------------------------|------------------------|
E||------------------------|------------------------|------------------------|

e||7-----8-----5-----8-----|12----------------------|7-----8-----5-----------|
B||------------------------|------------------------|------------------------|
G||------------------------|------------------------|------------------------|
D||------------------------|------------------------|------------------------|
A||------------------------|------------------------|------------------------|
E||------------------------|------------------------|------------------------|

e||------1-----0-----------|7-----8-----10----12----|5-----------------------|
B||3-----------------------|------------------------|------------------------|
G||------------------------|------------------------|------------------------|
D||------------------------|------------------------|------------------------|
A||------------------------|------------------------|------------------------|
E||------------------------|------------------------|------------------------|

This is a direct transcription from the original sheet music for the game. Some pieces do seem to 
be missing though so just improvise where ever you deem necessary.
Login or Register to remove this ad.