Melodies of Life (Final Fantasy IX) Mandolin Tab

Submitted: Jun 03, 2009 by LoneCentrist (Last updated: Feb 04, 2010)

5
Average: 5 (1 vote)
Download | Listen
Game: Final Fantasy IX
Composer(s): Nobuo Uematsu
Style: Transcription
Series: Final Fantasy

AutoScroll: Slow | Medium | Fast
Melodies of Life
Final Fantasy IX
Composed by Nobou Uematsu
Tabbed by Rob Van
6/2/09


E|-4--2--0----------0----------2-4-5-4-0-4-2--4-0-------------0-|
A|--------------4-6---6-4-2--------------------------3-2-0------|
D|---------------------------------------------------------6----|
G|--------------------------------------------------------------|

E|----------------------------------------------------------|
A|------------------------------------------------0---------|
D|---6--6-4-2--2-1---1-2-4----------1-2-------2-6---6-2-6-4-|
G|-4---------------6-------4----4-6-----6-6-4---------------|

E|---------------------------------------------------------|
A|---2--2-0-2-0-0-----------0------------------------------|
D|-6--------------6-6-4-4-6------6-4-2------2----2-4---0-4-|
G|--------------------------------------4-6----------6-----|

E|----------------------------------------------------------|
A|------------------------------------------------0---------|
D|---6--6-4-2--2-1---1-2-4----------1-2-------2-6---6-2-6-4-|
G|-4---------------6-------4----4-6-----6-6-4---------------|

E|------------------------------------------------------|
A|---2--2-4-2-0-0-----------0---------------------------|
D|-6--------------6-6-4-4-6------6-4-2-----2----4-6-4-2-|
G|-------------------------------------4-6--------------|

E|-----------------------------------------------------|
A|-0------------------2-0------------------0-----------|
D|---6-4-2-1-2-4----6-----6-4-3-4-6------6------6----4-|
G|-----------------------------------------------------|

E|-----------------------------------------------|
A|---0------------------------2----0-------------|
D|-6---6-4-2-1-2-6----------------------4--------|
G|-----------------------------------------------|

E|-------------------------------------------------------|
A|------------------------------0------------------------|
D|-2--4-6-1----1-1-2-1------------6-6-4-4--2----1-2-4----|
G|---------------------4-6----6---------------6----------|

E|--------------------------------------------------------|
A|--------2-------------0------------2-0-0-----------0--2-|
D|-2--4-6------6-1--------6-6-4-4--4-------6-6-4--6-------|
G|-----------------6--------------------------------------|

E|---------------------|
A|---------------------|
D|-6--6h7-6-1-4-4----2-|
G|---------------------|
Login or Register to remove this ad.