Fanfare (Final Fantasy IX) Mandolin Tab

Submitted: Jun 03, 2009 by LoneCentrist (Last updated: Feb 04, 2010)

5
Average: 5 (1 vote)
Download | Listen
Game: Final Fantasy IX
Composer(s): Nobuo Uematsu
Style: Transcription
Series: Final Fantasy

AutoScroll: Slow | Medium | Fast
Fanfare
Final Fantasy IX
Composed by Nobou Uematsu
Tabbed by Rob Van
6/2/09

E|----------------------|
A|3-3-3-3-----1-3--1-3--|
D|---------6------------|
G|----------------------|


E|3--1--3--1--6---6-5--6-5--5--3-1-0-1----|
A|------------------------------------5---|
D|----------------------------------------|
G|----------------------------------------|


E|3--1--3--1--6---6-5--6-5--5--3-1-3-6-8--|
A|----------------------------------------|
D|----------------------------------------|
G|----------------------------------------|

E|4---3---1-------------|
A|-----------6---5---1--|
D|----------------------|
G|----------------------|

Login or Register to remove this ad.