Captivating Eyes (Final Fantasy IX) Guitar Tab

Submitted: Sep 09, 2013 by Colin_spade

5
Average: 5 (2 votes)
Download | Listen
Game: Final Fantasy IX
Composer(s): Nobuo Uematsu
Style: Arrangement, Fingerstyle
Series: Final Fantasy

AutoScroll: Slow | Medium | Fast
Stolen eyes                                   


                                                                   Nobuo Uematsu
Track 1



     H           Q    Q    Q    Q       Q    Q    Q    Q     
E||-----------|----------------------|----------------------|
B||-----------|--0---------0---------|----------------------|
G||-----------|-------2----0----2----|--0---------0---------|
D||--0--------|-----------------4----|--3----1---------3----|
A||-----------|----------------------|------------3---------|
E||-----------|----------------------|----------------------|


  ^                      ^                                              
  Q    Q    Q    Q       H        Q    Q       E  E  E  E  E  E  E  E   
----------------------|---------------------|--------------------------|
----------------------|--1--------0----1----|--3-----0--3--1--0--1--0--|
------------0----2----|--2------------------|--------------2--0--2--0--|
--1----3----1----0----|--1------------------|-----0--------------------|
--1-------------------|--3------------------|--------------------------|
--1-------------------|---------------------|--3-----------------------|


  H        E  E  E  E     E  E  E  E  E  E  E  E     H        E  E  E  E   
-----------------------|--------------------------|-----------------------|
-----------1--0--1--0--|--------0--3--1--0--1--0--|-----------1--0--1--0--|
-----------2--0--2--0--|--------------2--0--2--0--|-----------2--0--2--0--|
-----------------------|-----0--------------------|-----------------------|
-----------------------|--------------------------|-----------------------|
-----------------------|--3-----------------------|-----------------------|


    ^                     ^                     ^                    
    H        Q    Q       H        Q    Q       Q    Q    Q    Q     
|---0--------0---------|---------------------|----------------------|
|-----------------3----|--1--------1----0----|-------0----1----3----|
|*--0------------------|--0------------------|--2-------------------|
|*--2------------------|--2------------------|--3-------------------|
|---3-------------2----|--0------------------|--3-------------------|
|----------------------|----------------3----|--1-------------------|


                         ^                      ^                    
  Q    Q    Q    Q       Q    Q    Q    Q       Q    Q    Q    Q     
----------------------|----------------------|-----------------0----|
----------------------|-------0----1---------|------------1---------|
--0--------------0----|--2--------------2----|--2----0--------------|
--2---------2----0----|--2-------------------|--2-------------------|
-------2--------------|--3-------------------|--3-------------------|
--0-------------------|--1-------------------|----------------------|


  ^                      ^                                         
  Q    Q    Q    Q       H        Q    Q       H        Q    Q     
--1----0---------0----|----------------0----|--3-------------5----|
--1---------1---------|--3--------0---------|---------------------|
----------------------|--5------------------|---------------------|
--0-------------------|--3------------------|-----------0---------|
--0-------------------|---------------------|--2------------------|
----------------------|--3------------------|--0------------------|


                         ^                      ^                   
  Q    Q    Q    Q       Q    Q    Q    Q       H.           E  E   
--3----1----1----0----|--0--------------0----|--1------------0-----|
----------------------|--1----3----3---------|------------------3--|
----------------------|--0--------------0----|--1------------------|
------------0----2----|--0---------3---------|---------------------|
--4-------------------|----------------------|--3------------------|
--5-------------------|----------------------|--1------------------|


  ^                     ^                       ^                 
  H.           E  E     H        E  E  E  E     W                 
---------------------|-----------------0-----|-------------------|
--1------------------|--1--------L--3-----3--|--1----------------|
--0------------0--2--|-----------------------|--2----------------|
---------------------|--0--------------------|--2----------------|
--3------------------|--0--------------------|--3----------------|
---------------------|--1--------------------|-------------------|


                       ^                        ^                   
  W                    H         E  E  E  E     E  E  H.            
-------------------|---8------------------8--|--7------------------|
-------------------|-------------------8-----|-----8---------------|
--0----------------|---9------------9--------|--------7------------|
-------------------|--10--------10-----------|--9------------------|
-------------------|-------------------------|---------------------|
-------------------|---8---------------------|--8------------------|


  ^                        ^                      ^                      
  H        E  E  E  E      E  E  H.               H         E  E  E  E   
--5--------------5--8--|--10--7---------------|---8------------------8--|
--6-----------6--------|---8-----8------------|-------------------8-----|
-----------5-----------|----------------------|---9------------9--------|
--7--------------------|---9------------------|--10--------10-----------|
-----------------------|----------------------|-------------------------|
--8--------------------|---8------------------|---8---------------------|


  ^                     ^                        ^                      
  E  E  H.              H        E  E  E  E      E  E  H        Q       
--7------------------|--5--------------5--8--|--10--7-----------------||
-----8---------------|--6-----------6--------|---8-----8--------------||
--------7------------|-----------5-----------|------------------0----*||
--9------------------|--7--------------------|---9-------------------*||
---------------------|-----------------------|------------------------||
--8------------------|--8--------------------|---8--------------------||




Duration Legend
---------------
W - whole
H - half
Q - quarter
E - 8th
S - 16th
T - 32nd
X - 64th
. - note dotted
|-n-|  - n-tuplets


Tablature Legend
----------------
L - tied note
x - dead note
g - grace note
(n) - ghost note
> - accentuded note
NH - natural harmonic
AH - artificial harmonic
TH - tapped harmonic
SH - semi harmonic
PH - pitch harmonic
h - hammer on
p - pull off
b - bend
br - bendRelease
pb - preBend
pbr - preBendRelease
brb - bendReleaseBend
\n/ - tremolo bar dip
\n - tremolo bar dive
-/n - tremolo bar Release up
/n\ - tremolo bar inverted dip
/n - tremolo bar return
-\n - tremolo bar Release down
S - shift slide
s - legato slide
/ -  slide into from below or out of upwards
\ -  slide into from above or out of downwards
~ - vibrato
W - wide vibrato
tr - trill
TP - tremolo picking
T - tapping
S - slap
P - pop
< - fade in
^ - brush up
v - brush down
Login or Register to remove this ad.