Bran Bal (Final Fantasy IX) Guitar Tab

Submitted: Dec 29, 2016 by chimatte (Last updated: Jan 30, 2017)

5
Average: 5 (3 votes)
Download | Listen
Game: Final Fantasy IX
Composer(s): Nobuo Uematsu
Style: Arrangement, Fingerstyle
Series: Final Fantasy

Click here for a video example.

AutoScroll: Slow | Medium | Fast
BRAN BAL
Final Fantasy IX
Nobuo Uematsu
Capo 3



     E  E  E  E  E  E     E  E  E  E  E  E     E  E  E  E  E  E     E  E  E  E  E  E   
E||--------------------|--------------------|--------------0-----|--------------0-----|
B||--2-----3-----2-----|--5-----3-----2-----|--1-----1-----1-----|--------1-----1-----|
G||-----------2--------|-----------2--------|--------2-----2-----|--------2-----2-----|
D||--------4-----4-----|--------4-----4-----|-----2-----2-----2--|-----2-----2-----2--|
A||-----4-----------4--|-----4-----------4--|--0-----------------|--0-----------------|
E||--2-----------------|--2-----------------|--------------------|--------------------|


  E  E  E  E  E  E     E  E  E  E  E  E     E  E  E  E  E  E     E  E  E  E  E  E   
--------------------|--0-----------------|--------------1-----|--------------1-----|
--1-----3-----1-----|--------3-----1-----|--0-----3-----3-----|--0-----3-----3-----|
-----------2-----2--|-----------2-----2--|-----2--2--------2--|-----2--2--------2--|
--------------3-----|--------------3-----|--0--------3--------|--0--------3--------|
-----3--------------|-----3--------------|--------------------|--------------------|
--1-----------------|--1-----------------|--------------------|--------------------|


  E  E  E  E  E  E     E  E  E  E  E  E     E  E  E  E  E  E     E  E  E  E  E  E   
--------------------|--------------------|--------------1-----|--------------1-----|
--0-----1-----0-----|--3-----1-----0-----|--------1-----1-----|--------1-----1-----|
-----------0--------|-----------0--------|--2-----2-----2-----|--------2-----2-----|
--------2-----2-----|--------2-----2-----|--------3-----------|--------3-----------|
-----2-----------2--|-----2-----------2--|-----3-----3-----3--|-----3-----3-----3--|
--0-----------------|--0-----------------|--1-----------------|--1-----------------|


  E  E  E  E  E  E     E  E  E  E  E  E     E  E  E  E  E  E     E  E  E  E  E  E   
--------------1-----|--------------------|--------------0-----|--------------0-----|
--------3-----3-----|--------------------|--------2-----2-----|--------2-----2-----|
--2-----2-----2-----|--------2-----0-----|--2-----2-----2-----|--------2-----2-----|
-----3-----3--------|--3-----3-----------|-----2-----2-----2--|-----2-----2-----2--|
--0--------------0--|-----3-----3-----3--|--0-----------------|--0-----------------|
--------------------|--1-----------3-----|--------------------|--------------------|


  E  E  E  E  E  E     E  E  E  E  E  E     E  E  E  E  E  E     E  E  E  E  E  E   
--5--------7--5-----|--1-----------1-----|--0-----------------|--0-----------0-----|
--------5-----5-----|--------3-----3-----|-----------1--3-----|--------0-----0-----|
-----5-----5-----5--|-----2-----2-----2--|-----------2-----2--|-----0-----0-----0--|
--------------------|--0-----------------|--------2-----2-----|--------------------|
--0-----------------|--------------------|--0--3--------------|--------------------|
--------------------|--------------------|--------------------|--0-----------------|


  E  E  E  E  E  E     E  E  E  E  E  E     E  E  E  E  E  E     E  E  E  E  E  E   
--3-----5-----3-----|--0-----------------|--0-----------------|--0-----------------|
--------------------|-----------1--3-----|--------0-----0-----|--------0-----0-----|
--------0-----0-----|--------2-----2-----|-----2-----2-----2--|-----1-----1-----1--|
-----2-----------2--|-----3-----3-----3--|--------------------|--------------------|
--3--------3--------|--------------------|--------------------|--------------------|
--------------------|--1-----------------|--0-----------------|--0-----------------|


  E  E  E  E  E  E     E  E  E  E  E  E     E  E  E  E  E  E     E  E  E  E  E  E   
--5--------7--5-----|--1-----------1-----|--0-----------------|--0-----------0-----|
--------5-----5-----|--------3-----3-----|-----------1--3-----|--------0-----0-----|
-----5-----5-----5--|-----3-----3-----3--|--------0-----0-----|-----0-----0-----0--|
--------------------|--------------------|-----2-----2-----2--|--------------------|
--0-----------------|--1-----------------|--3-----------------|--------------------|
--------------------|--------------------|--------------------|--0-----------------|


  E  E  E  E  E  E     E  E  E  E  E  E     E  E  E  E  E  E     E  E  E  E  E  E     
--3-----5-----3-----|--0-----------------|--0-----------------|--0------------------||
--------------------|-----------1--3-----|--------0-----0-----|--------0-----0------||
--------0-----0-----|--------2-----2-----|-----2-----2-----2--|-----1-----1-----1--*||
-----2-----------2--|-----3-----3-----3--|--------------------|--------------------*||
--3--------3--------|--------------------|--------------------|---------------------||
--------------------|--1-----------------|--0-----------------|--0------------------||


  H.             
--5------------||
--5------------||
--5------------||
---------------||
--0------------||
---------------||




Duration Legend
---------------
W - whole
H - half
Q - quarter
E - 8th
S - 16th
. - note dotted
|-n-|  - n-tuplets


Login or Register to remove this ad.