Ads

At the South Gate Border (Final Fantasy IX) Guitar Tab

Submitted: Sep 28, 2013 by Colin_spade

5
Average: 5 (5 votes)
Download | Listen
Game: Final Fantasy IX
Composer(s): Nobuo Uematsu
Style: Arrangement, Fingerstyle
Series: Final Fantasy

AutoScroll: Slow | Medium | Fast
At the South Gate Border                             


                                                                   Nobuo Uematsu
Track 1 (Capo 5)



     Q    Q    Q    Q       Q    Q    Q    Q       H        Q    Q     
E||----------------------|--1-------------------|--3------------------|
B||--4-------------------|----------------------|---------------------|
G||--5----3----1----0----|--1----0--------------|---------------------|
D||--6----5----3----1----|--3----1----3----1----|--0--------1----3----|
A||----------------------|------------5----3----|--2--------3----5----|
E||----------------------|----------------------|---------------------|


  Q    Q    Q    Q       Q    Q    Q    Q       Q    Q    Q    Q     
-------1--------------|----------------------|----------------------|
------------4----3----|--1-------------------|----------------------|
--0-------------------|----------------------|--1----0---------1----|
----------------------|------------0----1----|------------3---------|
--2-------------------|-------3--------------|----------------------|
----------------------|----------------------|----------------------|


  Q    Q    Q    Q       Q    Q    Q    Q       W                 
----------------------|----------------------|--0----------------|
--3-------------------|----------------------|-------------------|
----------------------|--3----1----0----3----|--0----------------|
-------0----1----3----|------------1----0----|-------------------|
----------------------|----------------------|--3----------------|
----------------------|----------------------|-------------------|


  Q    Q    Q    Q       W                   H.           Q     
----------------------|-------------------|--L-----------------|
--3-------------------|--1----------------|--------------------|
--1----0---------1----|--0----------------|--L-----------------|
------------3---------|-------------------|--------------------|
--3-------------------|--3----------------|--L-----------------|
----------------------|-------------------|--------------------|


    H        Q    Q       H        Q    Q       Q    Q    Q    Q     
|---0--------0---------|---------------------|----------------------|
|-----------------3----|--1--------1----0----|-------0----1----3----|
|*--0--------0----0----|---------------------|--2-------------------|
|*---------------------|--2--------2----2----|------------0---------|
|---3--------3----2----|--0--------0---------|--3-------------------|
|----------------------|----------------3----|--1---------2---------|


  H.           Q       Q    Q    Q    Q       Q    Q    Q    Q     
--------------------|----------------------|-----------------0----|
--------------------|-------0----1---------|------------1---------|
--0------------0----|--2----0----2----2----|--2----0---------0----|
--0-----------------|--3--------------3----|--2----2----2---------|
--------------------|------------3---------|-------2----0----3----|
--3-----------------|--1-------------------|----------------------|


  Q    Q    Q    Q       H.           Q       H        Q    Q     
--1----0---------0----|---------------0----|--3--------3----5----|
----------------------|--3-----------------|--0--------5----3----|
--2----0----5----2----|--0-----------------|---------------------|
--0---------4---------|--------------------|--2------------------|
-----------------3----|--2-----------------|-----------2---------|
----------------------|--------------------|---------------------|


  Q    Q    Q    Q       Q    Q    Q    Q       H.           E  E   
--3----1----0---------|--0--------------0----|--1------------0-----|
--2--------------3----|-------3----3---------|------------------3--|
------------2----0----|--0--------------0----|--1------------------|
----------------------|--0----3----3---------|---------------------|
--0---------2----4----|------------0----4----|--3------------------|
----------------------|----------------------|---------------------|


  H        Q    E  E     H        E  E  E  E     H        Q    Q     
----------------------|-----------------0-----|---------------------|
--1-------------------|--1--------L--3-----3--|--1------------------|
--0-------------0--2--|-----------------------|---------------------|
--2--------3----2-----|--3--------------------|--3--------0----3----|
-----------3----------|--0--------------2-----|--3------------------|
----------------------|-----------------------|---------------------|


  H.           Q         H.           Q       W                 
---------------------||--L-----------------|-------------------|
---------------------||--------------------|-------------------|
---------------0----*||---------------L----|-------------------|
--2-----------------*||--2-----------------|--3----------------|
--3------------------||--3------------L----|-------------------|
---------------------||--------------------|-------------------|


  Q    Q    Q    Q       E  E  H        E  E     Q    Q    Q    Q     
--1----0--------------|-----------------------|--L-------------------|
------------3----1----|--0--1--3--------------|--L-------------------|
--2----0--------------|--0--2--4--------------|----------------------|
------------3----2----|--0--------------------|------------0----3----|
--3-------------------|--------------------0--|--2----3--------------|
----------------------|-----------------3-----|----------------------|


  H        Q    Q       Q    Q    Q    Q       E  E  H        E  E   
----------------0----|--3----1----0---------|--------0--------------|
---------------------|--0--------------3----|--2--3--2--------------|
---------------------|-------2----0---------|--2--4-----------------|
--2--------L---------|-----------------3----|--2--------------------|
---------------------|--2-------------------|-----------------0--2--|
---------------------|----------------------|-----------------------|


  Q    Q    Q    Q       Q    Q    Q    Q       H        Q    Q     
-----------------0----|--1---------0---------|---------------------|
----------------------|-------3---------1----|--3------------------|
----------------------|--2---------2---------|-----------0----2----|
-------0----2---------|--0----3---------3----|--3------------------|
--4--------------4----|------------3---------|--1--------1----0----|
----------------------|----------------------|---------------------|


  Q    Q    Q    Q       Q    Q    Q    Q       Q    Q    Q    Q     
-------0----1----0----|----------------------|--0-------------------|
----------------------|--3----1----0----1----|------------0----1----|
--3---------0---------|--2--------------0----|-------2--------------|
----------------------|----------------------|----------------------|
------------0---------|--3--------------0----|-----------------0----|
--3-------------------|----------------------|-------1----3---------|


  Q    Q    Q    Q       H        H           H        Q    Q     
------------3---------|--------------------|---------------------|
--L----1----0----6----|--3-----------------|---------------------|
-----------------5----|--4--------2--------|--0-------------0----|
-------2----0---------|--0-----------------|-----------3---------|
--L--------------3----|--------------------|---------------------|
----------------------|--------------------|---------------------|


  H        Q    Q       H        Q    Q       Q    Q    Q    Q     
--0--------0---------|---------------------|----------------------|
----------------3----|--1--------1----0----|-------0----1----3----|
--0--------0----0----|---------------------|--2-------------------|
---------------------|--2--------2----2----|------------0---------|
--3--------3----2----|--0--------0---------|--3-------------------|
---------------------|----------------3----|--1---------2---------|


  H.           Q       Q    Q    Q    Q       Q    Q    Q    Q     
--------------------|----------------------|-----------------0----|
--------------------|-------0----1---------|------------1---------|
--0------------0----|--2----0----2----2----|--2----0---------0----|
--0-----------------|--3--------------3----|--2----2----2---------|
--------------------|------------3---------|--L--------------3----|
--3-----------------|--1-------------------|----------------------|


  Q    Q    Q    Q       H.           Q       H        Q    Q     
--1----0---------0----|---------------0----|--3--------3----5----|
------------1---------|--3-----------------|--0--------5----3----|
--2----0---------2----|--0-----------------|---------------------|
--0---------2---------|--------------------|--2------------------|
-----------------3----|--2-----------------|-----------2---------|
----------------------|--------------------|---------------------|


  Q    Q    Q    Q       Q    Q    Q    Q       H.           E  E   
--3----1----1----0----|--0--------------0----|--1------------0-----|
--2-------------------|-------3----3---------|------------------3--|
------------2----0----|--0--------------0----|--1------------------|
----------------------|--0----3----3---------|---------------------|
--0---------2----4----|------------0----4----|--3------------------|
----------------------|----------------------|---------------------|


  H        Q    E  E     H        E  E  E  E     H        Q    Q     
----------------------|-----------------0-----|---------------------|
--1-------------------|--1--------L--3-----3--|--1------------------|
--0-------------0--2--|-----------------------|---------------------|
--2--------3----2-----|--3--------------------|--3--------0----3----|
-----------3----------|--0--------------2-----|--3------------------|
----------------------|-----------------------|---------------------|


  H.           Q      
--------------------||
--------------------||
--------------------||
--2-----------------||
--3------------L----||
--------------------||




Duration Legend
---------------
W - whole
H - half
Q - quarter
E - 8th
S - 16th
T - 32nd
X - 64th
. - note dotted
|-n-|  - n-tuplets


Tablature Legend
----------------
L - tied note
x - dead note
g - grace note
(n) - ghost note
> - accentuded note
NH - natural harmonic
AH - artificial harmonic
TH - tapped harmonic
SH - semi harmonic
PH - pitch harmonic
h - hammer on
p - pull off
b - bend
br - bendRelease
pb - preBend
pbr - preBendRelease
brb - bendReleaseBend
\n/ - tremolo bar dip
\n - tremolo bar dive
-/n - tremolo bar Release up
/n\ - tremolo bar inverted dip
/n - tremolo bar return
-\n - tremolo bar Release down
S - shift slide
s - legato slide
/ -  slide into from below or out of upwards
\ -  slide into from above or out of downwards
~ - vibrato
W - wide vibrato
tr - trill
TP - tremolo picking
T - tapping
S - slap
P - pop
< - fade in
^ - brush up
v - brush down
Login or Register to remove this ad.

2 comments on At the South Gate Border

Beautiful

5

Beautiful

Really good! I was a bit

5

Really good! I was a bit surprised to see a new tab up for FFIX, and it turns out it was a really well-put together one that is fun to play and easy to learn! Thank you :D