Login or Register to remove this ad.

Prologue (Final Fantasy IV) Guitar Tab

Submitted: Nov 11, 2017 by FingerstyleGaming

5
Average: 5 (2 votes)
Download | Listen
Game: Final Fantasy IV
Composer(s): Nobuo Uematsu
Style: Arrangement, Fingerstyle
Series: Final Fantasy

AutoScroll: Slow | Medium | Fast
                                      Final Fantasy IV Intro                                        


Nylon Guitar
     >    >    >    >  >  >     >    >    >                      >    >    >  >  >   
                    |--3--|                     |--3--|                    |--3--|   
     Q    Q    Q    E  E  E     Q    Q    E.  S E  E  E     Q    Q    Q    E  E  E   
E||--------------------------|---------------------------|--------------------------|
B||--5----5----5----5--5--5--|--5----5----5--------------|--0-----------------------|
G||--2----2----2----2--2--2--|--2----2----2-----2-----2--|-------0----0----0--0--0--|
D||--------------------------|----------------2----2-----|-------3----3----3--3--3--|
A||--2----2----2----2--2--2--|--2----2----2--------------|-------3----3----3--3--3--|
E||--0----0----0----0--0--0--|--0----0----0-----0--------|--1----1----1----1--1--1--|


  >    >    >                 >    >    >    >  >  >     >    >    >               
                  |--3--|                    |--3--|                     |--3--|   
  Q    Q    E.  S E  E  E     Q    Q    Q    E  E  E     Q    Q    E.  S E  E  E   
---------------------------|--------------------------|---------------------------|
------------------0-----0--|--3-----------------------|------------------3-----3--|
--0----0----0---0----0-----|-------4----4----4--4--4--|--4----4----4---4----4-----|
--3----3----3--------------|-------7----7----7--7--7--|--7----7----7--------------|
--3----3----3--------------|--------------------------|---------------------------|
--1----1----1-----1--------|--0----0----0----0--0--0--|--0----0----0-----0--------|


  >    >    >    >  >  >     >    >    >                                                        
                 |--3--|                                                                        
  Q    Q    Q    E  E  E     Q    Q    Q    Q       Q    Q    Q    Q        H        Q    Q     
--0-----------------------|--0----0----0----0----|-------5----7---------|--10--------9----7----|
-------0----0----0--0--0--|--3----3----3----3----|--5--------------5----|----------------------|
-------1----1----1--1--1--|--1----1----1----1----|--6-------------------|----------------------|
--------------------------|----------------------|--7---------6---------|----------------------|
--------------------------|----------------------|--0-------------------|---9--------7---------|
--0----0----0----0--0--0--|--0----0----0----0----|----------------------|----------------------|


  Q    E  E  Q    Q       H        H           Q    Q    Q     Q        H         Q    Q     
--5----4--5--7----5----|--5--------4--------|-------7----9----------|--12--------10----9----|
--7----------7---------|--7--------5--------|--7--------------------|---7---------7---------|
--7--------------------|--------------------|--4---------9----11----|---7-------------------|
--0--------------------|--------------------|--0--------------------|-----------------------|
-------------6---------|--7-----------------|-----------------------|-----------------------|
-----------------------|-----------0--------|------------9----------|---7---------6---------|


  Q     E  E  Q    Q       Q    E  E  E  E  Q       Q    Q    Q    Q        H        Q    Q     
--7--------9--7---------|--9----------7----------|-------5----7---------|--10--------9----7----|
-------11----------7----|------------------------|--5--------------5----|----------------------|
--7-----------8---------|------------------------|--6-------------------|----------------------|
------------------------|-------------6--7--9----|--7---------6---------|----------------------|
--------------0---------|-------7--9-------------|--0-------------------|---9--------7---------|
--7---------------------|--0---------------------|----------------------|----------------------|


  Q    E  E  Q    Q       H        H           Q    Q    Q     Q        H         Q    Q     
--5----4--5--7----5----|--5--------4--------|-------7----9----------|--12--------10----9----|
--7----------7---------|--7--------5--------|--7--------------------|---7---------7---------|
--7--------------------|--------------------|--4---------9----11----|---7-------------------|
--0--------------------|--------------------|--0--------------------|-----------------------|
-------------6---------|--7-----------------|-----------------------|-----------------------|
-----------------------|-----------0--------|------------9----------|---7---------6---------|


  Q     E  E  Q    Q       Q    E  E  E  E  Q       Q    E  E  E  E  E  E     Q    Q    Q    Q     
--7--------9--7---------|--9----------7----------|-------------------------|----------------------|
-------11----------7----|------------------------|--7----------------7-----|--5--------------2----|
--7-----------8---------|------------------------|--7----------------7-----|--6--------------2----|
------------------------|-------------6--7--9----|--0----0-----0-----4--6--|--7----7--------------|
--------------0---------|-------7--9-------------|----------4-----7--------|------------7----4----|
--7---------------------|--0---------------------|-------------------------|----------------------|


  Q    E  E  Q    Q       Q    Q    Q    Q       Q    E  E  E  E  E  E     Q    E  E  E  E  Q     
-----------------------|-----------------0----|--3----------------3-----|--2---------------------|
--3----3--2--0---------|--0----2----3---------|--5----------------5-----|--3----------------3----|
------------------3----|----------------------|-------------------------|-------------------4----|
--0----------4---------|--0-------------------|-------------------0--2--|-------------0--2-------|
-----------------------|--2---------0---------|--3-------0--2--3--------|--2----2--4-------------|
--3--------------------|----------------------|-------3-----------------|-------------------2----|


  Q    E  E  E  E  E  E     Q    Q    Q    Q       Q    Q    Q    Q        H        Q    Q     
--0----0--1--0-----0--1--|--0-------------------|-------5----7---------|--10--------9----7----|
--1----------------------|-------3----2----0----|-------5---------5----|----------------------|
--2----------------------|--2---------1---------|-------6--------------|----------------------|
----------------------0--|--2---------2---------|--7---------6---------|----------------------|
-------------0--2--3-----|----------------------|--0-------------------|---9--------7---------|
--1----1-----------------|--0---------0---------|----------------------|----------------------|


  Q    E  E  Q    Q       H        H           Q    Q    Q     Q        H         Q    Q     
--5----4--5--7----5----|--5--------4--------|-------7----9----------|--12--------10----9----|
--7----------7---------|--7--------5--------|--7--------------------|---7---------7---------|
--7--------------------|--------------------|--4---------9----11----|---7-------------------|
--0--------------------|--------------------|--0--------------------|-----------------------|
-------------6---------|--7-----------------|-----------------------|-----------------------|
-----------------------|-----------0--------|------------9----------|---7---------6---------|


  Q     E  E  Q    Q       Q    E  E  E  E  Q      
--7--------9--7---------|--9----------7----------||
-------11----------7----|------------------------||
--7-----------8---------|------------------------||
------------------------|-------------6--7--9----||
--------------0---------|-------7--9-------------||
--7---------------------|--0---------------------||




Duration Legend
---------------
W - whole
H - half
Q - quarter
E - 8th
S - 16th
T - 32nd
X - 64th
. - note dotted
|-n-|  - n-tuplets


Tablature Legend
----------------
L - tied note
x - dead note
g - grace note
(n) - ghost note
> - accentuded note
NH - natural harmonic
AH - artificial harmonic
TH - tapped harmonic
SH - semi harmonic
PH - pitch harmonic
h - hammer on
p - pull off
b - bend
br - bendRelease
pb - preBend
pbr - preBendRelease
brb - bendReleaseBend
\n/ - tremolo bar dip
\n - tremolo bar dive
-/n - tremolo bar Release up
/n\ - tremolo bar inverted dip
/n - tremolo bar return
-\n - tremolo bar Release down
S - shift slide
s - legato slide
/ -  slide into from below or out of upwards
\ -  slide into from above or out of downwards
~ - vibrato
W - wide vibrato
tr - trill
TP - tremolo picking
T - tapping
S - slap
P - pop
< - fade in
^ - brush up
v - brush down
Login or Register to remove this ad.