Ads

Golbez, Clad in Darkness (Final Fantasy IV) Guitar Tab

Submitted: Oct 21, 2012 by The Ripper

5
Average: 5 (5 votes)
Download | Listen
Game: Final Fantasy IV
Composer(s): Nobuo Uematsu
Style: Arrangement, Fingerstyle
Series: Final Fantasy

AutoScroll: Slow | Medium | Fast
                          Golbez,Clad in Darkness
                              Final Fantasy IV
                           Composed by Nobuo Uematsu 
                     Tabbed by the Ripper October 20th 2012


  BPM=55
    H        H           S S S S S S S S S S S S S S S S  
E||-----------0--------|--L---0---------0---0---0---0---0-|
B||-----------0--------|--L-4---0-1---0-------------------|
G||-----------0--------|--L---------2-----2---0-------0---|
D||--------------------|--------------------------4-------|
A||--------------------|----------------------------------|
E||-----------0--------|--L-----------------------------L-|
     Piano(Soft)

  S S S S S S S S S S S S S S S S    W                 
----0-----------------------------|-------------------|
--------0---0---0---0---0---0---0-|-------------------|
--2-------------------------------|--0----------------|
----------------------------------|--8----------------|
------2---4---6---7---6---7---9---|--7----------------|
--0-----------------------------L-|--9----------------|


  S  S S S S S S S S S S S  S S S S    S S S S S S S S S S S S S S S S  
--7----7---------7---7---7----7---7-|----7-----------------------------|
----11---7-8---7--------------------|--------7---7---7---7---7---7---7-|
-------------9-----9---7--------7---|--9---------------------------6---|
---------------------------11-------|----------6---8---9---8---9-------|
------------------------------------|------9---------------------------|
--7-------------------------------L-|----------------------------------|

                                                           BPM=85
  E  E  E  E  E  E  E  E     E  E  E  E  E  E  E  E       H        E  E   
--4--------L--------------|--------------------------||------------------|
--6--6-----6--------------|--------------------------||---0--------------|
--4--L--7-----7--4--7--4--|-----4--------------------||*--0--------3-----|
--------------------------|--6-----6-----6-----------||*--2--------4-----|
--------------------------|-----------8-----8--5-----||------------4-----|
--4--------------------L--|-----------------------7--||---0-----------L--|
                                                          Forte(loud)

  H        E  E     E  E  H           Q    Q    E  E     E  E  H         
-----------------|-----------------|------------------|-----------------|
--0--------------|--0--2--3--------|--2----0-------L--|-----0--0--------|
--0--------3-----|--0--2--4--------|--2----0-------0--|--2-----0--------|
--2--------4-----|--2--4--5--------|--4----2----4--L--|--------2--------|
-----------4-----|-----------------|------------------|--0--2--4--------|
--0--------L--L--|--0-----L--------|--L----0----2--3--|-----------------|


  E  E  H           E  E  E  E  Q       Q    Q    E  E     E  E  E  E  Q     
-----------------|-------------------|------------------|--------------0----|
--------0--------|--------0--2--3----|--L----2----0--2--|--0-----0--2--1----|
--3-----0--------|--3-----0--2--4----|--L----2----0-----|-----3--------2----|
--4-----2--------|--4-----2--4--5----|--L----4----2-----|-------------------|
--4-----L--------|--4--L-------------|------------4--4--|--2--1--2--4--0----|
-----------------|-------------------|------------------|-------------------|


  Q    E  E  Q       Q    E  E  E  E     H        Q       Q    E  E  E  E   
--L----------0----|--L----------0--2--|--3--------2----|--0----------------|
--L----4-----1----|--L----4-----1--4--|--5--------4----|--1-------------0--|
--L----4-----2----|--L----4-----2--4--|--5--------4----|--2----2--1--2-----|
-------4----------|-------4-----------|----------------|-------------------|
----------L--0----|-------L-----------|-----------L----|--0----0-----0--2--|
------------------|-------------------|----------------|----------4--------|


  H        E  E     H        E  E     E  E  H           Q    E  E  E  E  E  E   
--0--------------|--0--------------|--0--2--3--------|--2----0--------L--------|
--1--------4-----|--1--------4-----|--1--4--5--------|--4----1--------L--------|
--2--------4-----|--2--------4-----|--2--4--5--------|--4----2--2--1--0--------|
-----------4-----|-----------4-----|-----------------|-------------------4--3--|
--0-----------L--|--0-----------L--|--0-----L--------|--L----0--0--------------|
-----------------|-----------------|-----------------|-------------4--3--2--1--|

BPM=105
  S S S S S S S S S S S S S S S S    S S S S S S S S S S S S S S S S  
--0---0---------0---0---0---0---0-|----0-----------------------------|
----4---0-1---0-------------------|--------0---0---0---0---0---0---0-|
------------2-----2---0-------0---|--2-------------------------------|
--------------------------4-------|----------------------------------|
----------------------------------|------2---4---6---7---6---7---9---|
--0-----------------------------L-|--0-----------------------------L-|
Mezzo-forte (moderately loud)

  W                   S  S S S S S S S S S S S  S S S S  
-------------------|--7----7---------7---7---7----7---7-|
-------------------|----11---7-8---7--------------------|
--0----------------|-------------9-----9---7--------7---|
--8----------------|---------------------------11-------|
--7----------------|------------------------------------|
--9----------------|--7-------------------------------L-|

                                    rallentando-------------
  S S S S S S S S S S S S S S S S    E  E  E  E  E  E  E  E   
----7-----------------------------|--4--------L--------------|
--------7---7---7---7---7---7---7-|--6--6-----6--------------|
--9---------------------------6---|--4--L--7-----7--4--7--4--|
----------6---8---9---8---9-------|--------------------------|
------9---------------------------|--------------------------|
----------------------------------|--4--------------------L--|

-------------------------=70
  E  E  E  E  E  E  E  E       E  E  E  E  E  E  Q       W                  
---------------------------||-------------------------|-------------------||
---------------------------||-------------------------|-------------------||
-----4--------------------*||-------------------------|-------------------||
--6-----6-----6-----------*||--------------------3----|--L----------------||
-----------8-----8--5------||--5-----------------2----|--L----------------||
-----------------------7---||-----7--4--7--4--2--1----|--L----------------||




Legend
---------------
W - whole
H - half
Q - quarter
E - 8th
S - 16th
T - 32nd
. - note dotted
L - tied note
Login or Register to remove this ad.

1 comment on Golbez, Clad in Darkness

Awesome!

5

Awesome!