The Final Battle (Final Fantasy IV) Bass/Guitar Tab

Submitted: Nov 14, 2011 by hashel

5
Average: 5 (1 vote)
Download | Listen
Game: Final Fantasy IV
Composer(s): Nobuo Uematsu
Style: 2 or more instruments, Transcription
Series: Final Fantasy

This song is also called Zeromus

Click here for a video example.

AutoScroll: Slow | Medium | Fast
plz dl the gp file for bass and drums =)

Melody

E |----|----------|----------|----------|----------|
B |----|----------|----------|----------|-----8----|
G |----|--7-------|-----8----|--7--10---|--8-------|
D |----|-----9----|--10------|----------|----------|
A |----|----------|----------|----------|----------|
E |----|----------|----------|----------|----------|


----------------------------|--11-------13-11-15-14-17---||-15L--|--15---|
-----------11----13-11-15---|-----13-15------------------||------|-------|
--14-11-12----14------------|----------------------------||o-----|-------|
----------------------------|----------------------------||o-----|-------|
----------------------------|----------------------------||------|-------|
----------------------------|----------------------------||------|-------|


--15-------15-------15----15-------15-------15------|
----------------------------------------------------|
----------------------------------------------------|
----------------------------------------------------|
----------------------------------------------------|
----------------------------------------------------|


--15-------15-------15----15-------15-------15-----||----------------|
---------------------------------------------------||--------15-13---|
--------------------------------------------------o||--14------------|
--------------------------------------------------o||----------------|
---------------------------------------------------||----------------|
---------------------------------------------------||----------------|


----------------|--------13------|-------|----------------------------|
----------------|--13-------16---|--15---|--16L---------16-13-15-16---|
--15-14-12-15---|----------------|-------|----------------------------|
----------------|----------------|-------|----------------------------|
----------------|----------------|-------|----------------------------|
----------------|----------------|-------|----------------------------|


--15-18---|--17L--|--17---||-15L--|--15---|
----------|-------|-------||------|-------|
----------|-------|-------||o-----|-------|
----------|-------|-------||o-----|-------|
----------|-------|-------||------|-------|
----------|-------|-------||------|-------|


--15-------15-------15----15-------15-------15------|
----------------------------------------------------|
----------------------------------------------------|
----------------------------------------------------|
----------------------------------------------------|
----------------------------------------------------|


--15-------15-------15----15-------15-------15-----||----------|----------|
---------------------------------------------------||-----13L--|--13-11L--|
--------------------------------------------------o||----------|----------|
--------------------------------------------------o||----------|----------|
---------------------------------------------------||----------|----------|
---------------------------------------------------||----------|----------|


-------|----|----------|-----13---|--12L--|--12---|----------|--12-15---|
--11---|----|----------|--15------|-------|-------|-----13---|----------|
-------|----|--12-15---|----------|-------|-------|--14------|----------|
-------|----|----------|----------|-------|-------|----------|----------|
-------|----|----------|----------|-------|-------|----------|----------|
-------|----|----------|----------|-------|-------|----------|----------|


--14L--|--14---||---------|--------------------------------------7s-------12---|
-------|-------||-7--7----|--7-----------------------7-------------------------|
-------|-------||o--------|----------------------------------------------------|
-------|-------||o--------|----------------------------------------------------|
-------|-------||---------|----------------------------------------------------|
-------|-------||---------|----------------------------------------------------|


--12-10-12-14-15----14------|--12----10----------10-12--||----------|----------|
----------------------------|-----------13L13-13--------||----------|----------|
----------------------------|--------------------------o||--12-12---|--12-12---|
----------------------------|--------------------------o||----------|----------|
----------------------------|---------------------------||----------|----------|
----------------------------|---------------------------||----------|----------|


--15-14-15-17-19L19-17-15L--|--15---|--15-14-15-17-19L19-17-15L--|--15---|
----------------------------|-------|----------------------------|-------|
----------------------------|-------|----------------------------|-------|
----------------------------|-------|----------------------------|-------|
----------------------------|-------|----------------------------|-------|
----------------------------|-------|----------------------------|-------|


-----19-17-15---|----------------|--19------------|----------------|
----------------|--18-17-15------|----------------|----------------|
----------------|-----------17---|----------------|--16------------|
----------------|----------------|----------------|----------------|
----------------|----------------|----------------|----------------|
----------------|----------------|----------------|----------------|


--19------------|--20------------|----------------|--20------------|
----------------|----------------|----------------|----------------|
--------16------|----------------|--17------------|--------17------|
----------------|----------------|----------------|----------------|
----------------|----------------|----------------|----------------|
----------------|----------------|----------------|----------------|


--19>---19------|----------------|--19------------|--20>---20------|
----------------|----------------|----------------|----------------|
----------------|--16>---16------|--------16------|----------------|
----------------|----------------|----------------|----------------|
----------------|----------------|----------------|----------------|
----------------|----------------|----------------|----------------|


----------------|--20------------|----------------------|----------|
----------------|----------------|--11>------------11---|--12>13>--|
--17>---17------|--------17------|--------------11------|----------|
----------------|----------------|-----------11---------|----------|
----------------|----------------|----------------------|----------|
----------------|----------------|----------------------|----------|


----------------------|----------------------|----------------------|-------|
--10-------11>--------|--8>-------------8----|--10>-----------------|-------|
-----12-10------------|--------------8-------|-----------10-8--6----|--7----|
----------------------|-----------8----------|----------------------|-------|
----------------------|----------------------|----------------------|-------|
----------------------|----------------------|----------------------|-------|


----------|----------|----------|----------|-----13---|--12L--|--12---|
----------|----------|----------|----------|--15------|-------|-------|
----------|----------|----------|--12-15---|----------|-------|-------|
----------|----------|----------|----------|----------|-------|-------|
----------|----------|----------|----------|----------|-------|-------|
----------|----------|----------|----------|----------|-------|-------|


----------|--12-15---|--14L--|--14---||---------|
-----13---|----------|-------|-------||-7--7----|
--14------|----------|-------|-------||o--------|
----------|----------|-------|-------||o--------|
----------|----------|-------|-------||---------|
----------|----------|-------|-------||---------|


--------------------------------------7s-------12---|
--7-----------------------7-------------------------|
----------------------------------------------------|
----------------------------------------------------|
----------------------------------------------------|
----------------------------------------------------|


--12-10-12-14-15----14------|--12----10----------10-12--||----------|----------|
----------------------------|-----------13L13-13--------||----------|----------|
----------------------------|--------------------------o||--12-12---|--12-12---|
----------------------------|--------------------------o||----------|----------|
----------------------------|---------------------------||----------|----------|
----------------------------|---------------------------||----------|----------|


--15-14-15-17-19L19-17-15L--|--15---|--15-14-15-17-19L19-17-15L--|--15---|
----------------------------|-------|----------------------------|-------|
----------------------------|-------|----------------------------|-------|
----------------------------|-------|----------------------------|-------|
----------------------------|-------|----------------------------|-------|
----------------------------|-------|----------------------------|-------|


-----19-17-15---|----------------|--19------------|----------------|
----------------|--18-17-15------|----------------|----------------|
----------------|-----------17---|----------------|--16------------|
----------------|----------------|----------------|----------------|
----------------|----------------|----------------|----------------|
----------------|----------------|----------------|----------------|


--19------------|--20------------|----------------|--20------------|
----------------|----------------|----------------|----------------|
--------16------|----------------|--17------------|--------17------|
----------------|----------------|----------------|----------------|
----------------|----------------|----------------|----------------|
----------------|----------------|----------------|----------------|


--19>---19------|----------------|--19------------|--20>---20------|
----------------|----------------|----------------|----------------|
----------------|--16>---16------|--------16------|----------------|
----------------|----------------|----------------|----------------|
----------------|----------------|----------------|----------------|
----------------|----------------|----------------|----------------|


----------------|--20------------|----------------------|----------|
----------------|----------------|--11>------------11---|--12>13>--|
--17>---17------|--------17------|--------------11------|----------|
----------------|----------------|-----------11---------|----------|
----------------|----------------|----------------------|----------|
----------------|----------------|----------------------|----------|


----------------------|----------------------|----------------------|-------|
--10-------11>--------|--8>-------------8----|--10>-----------------|-------|
-----12-10------------|--------------8-------|-----------10-8--6----|--7----|
----------------------|-----------8----------|----------------------|-------|
----------------------|----------------------|----------------------|-------|
----------------------|----------------------|----------------------|-------|


----------|----------|----------|----||
----------|----------|----------|----||
----------|----------|----------|----||
----------|----------|----------|----||
----------|----------|----------|----||
----------|----------|----------|----||


Harmony


E |----|----------|----------|----------|----------|
B |----|----------|----------|----------|----------|
G |----|----------|----------|----------|----------|
D |----|----------|----------|----------|----------|
A |----|--2-------|-----3----|--2--5----|--3--6----|
E |----|-----4----|--5-------|----------|----------|


----------------------------|----------------------------||------|-------|
----------------------------|-----------------------7----||------|-------|
----------------------------|--5--------7--5--8--7-------||o7L---|--7----|
--4--------5--4--7--5--8----|-----7--8-------------------||o-----|-------|
-----6--7-------------------|----------------------------||------|-------|
----------------------------|----------------------------||------|-------|


----------------------------------------------------|
----------------------------------------------------|
--6--------6--------6-----6--------6--------6-------|
----------------------------------------------------|
----------------------------------------------------|
----------------------------------------------------|


---------------------------------------------------||-------|-------|-------|
---------------------------------------------------||-------|-------|-------|
--6--------6--------6-----6--------6--------6-----o||-------|-------|--5----|
--------------------------------------------------o||--7----|--8----|-------|
---------------------------------------------------||-------|-------|-------|
---------------------------------------------------||-------|-------|-------|


-------|-------|-------|-------|-------||------|-------|
-------|-------|-------|-------|-------||------|-------|
--7----|--5----|-------|-------|-------||o7L---|--7----|
-------|-------|--8----|--7L---|--7----||o-----|-------|
-------|-------|-------|-------|-------||------|-------|
-------|-------|-------|-------|-------||------|-------|


----------------------------------------------------|
----------------------------------------------------|
--6--------6--------6-----6--------6--------6-------|
----------------------------------------------------|
----------------------------------------------------|
----------------------------------------------------|


---------------------------------------------------||-------|--13---|--11---|
---------------------------------------------------||-------|-------|-------|
--6--------6--------6-----6--------6--------6-----o||-------|-------|-------|
--------------------------------------------------o||-------|-------|-------|
---------------------------------------------------||--10---|-------|-------|
---------------------------------------------------||-------|-------|-------|


----|----------------------------|----------------------------|----------------|
----|----------------------------|----------------------------|----------------|
----|----------------------------|----------------------------|----------------|
----|--12-------12-12------------|--12-------12-12----10-12---|--------11-14---|
----|----------------------------|-----------------13---------|--10-13---------|
----|----------------------------|----------------------------|----------------|


----------------|----------------------------|----------------------------|
--------14-17---|----------------------------|----------------------------|
--12-15---------|--9--------9--9-------------|--9--------9--9-----7--9----|
----------------|----------------------------|-----------------10---------|
----------------|----------------------------|----------------------------|
----------------|----------------------------|----------------------------|


----------------|--------11-14---||-12------|----------|
----------------|--10-13---------||----15---|--14-15---|
--------8--11---|----------------||o--------|----------|
--7--10---------|----------------||o--------|----------|
----------------|----------------||---------|----------|
----------------|----------------||---------|----------|


--------------12------------|---------------------------||--14-12---|-----12---|
--13-12-13-15-------15------|--13----12----------12-13--||----------|--15------|
----------------------------|-----------14L14-14-------o||----------|----------|
----------------------------|--------------------------o||----------|----------|
----------------------------|---------------------------||----------|----------|
----------------------------|---------------------------||----------|----------|


--12----12-14-15L15-14-12L--|--12---|--12----12-14-15L15-14-12L--|--12---|
-----15---------------------|-------|-----15---------------------|-------|
----------------------------|-------|----------------------------|-------|
----------------------------|-------|----------------------------|-------|
----------------------------|-------|----------------------------|-------|
----------------------------|-------|----------------------------|-------|


-----13-12-10---|----------------|--13------------|----------------|
----------------|--13-12-10------|----------------|----------------|
----------------|-----------12---|----------------|--10------------|
----------------|----------------|----------------|----------------|
----------------|----------------|----------------|----------------|
----------------|----------------|----------------|----------------|


--13------------|--14------------|----------------|--14------------|
----------------|----------------|----------------|----------------|
--------10------|----------------|--11------------|--------11------|
----------------|----------------|----------------|----------------|
----------------|----------------|----------------|----------------|
----------------|----------------|----------------|----------------|


----------------|----------------|----------------|--14>---14------|
----------------|----------------|----------------|----------------|
--10>---10------|----------------|--10------------|----------------|
----------------|----------------|----------------|----------------|
----------------|--8>----8-------|--------8-------|----------------|
----------------|----------------|----------------|----------------|


----------------|--14------------|----------|----------|----------|----------|
----------------|----------------|----------|----------|----------|----------|
--11>---11------|--------11------|----------|----------|----------|----------|
----------------|----------------|--11>-----|--12>14>--|-----12>--|----------|
----------------|----------------|----------|----------|----------|--13>-----|
----------------|----------------|----------|----------|----------|----------|


----------|----------|-----13---|--18L--|--18---|----------------------------|
----------|----------|--13------|-------|-------|----------------------------|
----------|-----12---|----------|-------|-------|----------------------------|
--10>-----|--12>-----|----------|-------|-------|--12-------12-12------------|
----------|----------|----------|-------|-------|----------------------------|
----------|----------|----------|-------|-------|----------------------------|


----------------------------|----------------|----------------|
----------------------------|----------------|--------14-17---|
----------------------------|----------------|--12-15---------|
--12-------12-12----10-12---|--------11-14---|----------------|
-----------------13---------|--10-13---------|----------------|
----------------------------|----------------|----------------|


----------------------------|----------------------------|----------------|
----------------------------|----------------------------|----------------|
--9--------9--9-------------|--9--------9--9-----7--9----|--------8--11---|
----------------------------|-----------------10---------|--7--10---------|
----------------------------|----------------------------|----------------|
----------------------------|----------------------------|----------------|


--------11-14---||-12------|----------|--------------12------------|
--10-13---------||----15---|--14-15---|--13-12-13-15-------15------|
----------------||o--------|----------|----------------------------|
----------------||o--------|----------|----------------------------|
----------------||---------|----------|----------------------------|
----------------||---------|----------|----------------------------|


---------------------------||--14-12---|-----12---|--12----12-14-15L15-14-12L--|
--13----12----------12-13--||----------|--15------|-----15---------------------|
-----------14L14-14-------o||----------|----------|----------------------------|
--------------------------o||----------|----------|----------------------------|
---------------------------||----------|----------|----------------------------|
---------------------------||----------|----------|----------------------------|


--12---|--12----12-14-15L15-14-12L--|--12---|-----13-12-10---|----------------|
-------|-----15---------------------|-------|----------------|--13-12-10------|
-------|----------------------------|-------|----------------|-----------12---|
-------|----------------------------|-------|----------------|----------------|
-------|----------------------------|-------|----------------|----------------|
-------|----------------------------|-------|----------------|----------------|


--13------------|----------------|--13------------|--14------------|
----------------|----------------|----------------|----------------|
----------------|--10------------|--------10------|----------------|
----------------|----------------|----------------|----------------|
----------------|----------------|----------------|----------------|
----------------|----------------|----------------|----------------|


----------------|--14------------|----------------|----------------|
----------------|----------------|----------------|----------------|
--11------------|--------11------|--10>---10------|----------------|
----------------|----------------|----------------|----------------|
----------------|----------------|----------------|--8>----8-------|
----------------|----------------|----------------|----------------|


----------------|--14>---14------|----------------|--14------------|----------|
----------------|----------------|----------------|----------------|----------|
--10------------|----------------|--11>---11------|--------11------|----------|
----------------|----------------|----------------|----------------|--11>-----|
--------8-------|----------------|----------------|----------------|----------|
----------------|----------------|----------------|----------------|----------|


----------|----------|----------|----------|----------|-----13---|--18L--|
----------|----------|----------|----------|----------|--13------|-------|
----------|----------|----------|----------|-----12---|----------|-------|
--12>14>--|-----12>--|----------|--10>-----|--12>-----|----------|-------|
----------|----------|--13>-----|----------|----------|----------|-------|
----------|----------|----------|----------|----------|----------|-------|


--18---|----||
-------|----||
-------|----||
-------|----||
-------|----||
-------|----||


Rhythm

E |----|----------------------------------------------------|
B |----|----------------------------------------------------|
G |----|--7--8--7--8--7--8--7--8--7--8--7--8--7--8--7--8----|
D |----|----------------------------------------------------|
A |----|----------------------------------------------------|
E |----|----------------------------------------------------|


----------------------------------------------------|
----------------------------------------------------|
--7--8--7--8--7--8--7--8--7--8--7--8--7--8--7--8----|
----------------------------------------------------|
----------------------------------------------------|
----------------------------------------------------|


----------------------------------------------------|
----------------------------------------------------|
--7--8--7--8--7--8--7--8--7--8--7--8--7--8--7--8----|
----------------------------------------------------|
----------------------------------------------------|
----------------------------------------------------|


----------------------------------------------------|-------|-------||
----------------------------------------------------|-------|-------||
--7--8--7--8--7--8--7--8--7--8--7--8--7--8--7--8----|-------|-------||
----------------------------------------------------|-------|-------||
----------------------------------------------------|-------|-------||
----------------------------------------------------|-------|-------||


---------------------------|----------------------------|
---------------------------|----------------------------|
o--------------------------|----------------------------|
o--------------------------|----------------------------|
---------------------------|----------------------------|
-3M-3M-2M-4M-4M-3M-5M-4M---|--3M-3M-2M-4M-4M-3M-5M-4M---|


----------------------------|---------------------------||
----------------------------|---------------------------||
----------------------------|--------------------------o||
----------------------------|--------------------------o||
----------------------------|---------------------------||
--3M-3M-2M-4M-4M-3M-5M-4M---|--3M-3M-2M-4M-4M-3M-5M-4M--||


----------------------------|----------------------------|
----------------------------|----------------------------|
----------------------------|----------------------------|
----------------------------|----------------------------|
----------------------------|----------------------------|
--5M-5M-5M-5M-5M-5M-5M-5M---|--6M-6M-6M-6M-6M-6M-6M-6M---|


----------------------------|----------------------------|
----------------------------|----------------------------|
----------------------------|----------------------------|
----------------------------|----------------------------|
----------------------------|--5M-5M-5M-5M-5M-5M-5M-5M---|
--8M-8M-8M-8M-8M-8M-8M-8M---|----------------------------|


----------------------------|----------------------------|
----------------------------|----------------------------|
----------------------------|----------------------------|
----------------------------|--5M-5M-5M-5M-8M-8M-8M-8M---|
--6M-6M-6M-6M-6M-6M-6M-6M---|----------------------------|
----------------------------|----------------------------|


----------------------------|----------------------------||
----------------------------|----------------------------||
----------------------------|----------------------------||
--7M-7M-7M-7M-7M-7M-7M-7M---|--7M-7M-7M-7M-7M-7M-7M-7M---||
----------------------------|----------------------------||
----------------------------|----------------------------||


---------------------------|----------------------------|
---------------------------|----------------------------|
o--------------------------|----------------------------|
o--------------------------|----------------------------|
---------------------------|----------------------------|
-3M-3M-2M-4M-4M-3M-5M-4M---|--3M-3M-2M-4M-4M-3M-5M-4M---|


----------------------------|---------------------------||
----------------------------|---------------------------||
----------------------------|--------------------------o||
----------------------------|--------------------------o||
----------------------------|---------------------------||
--3M-3M-2M-4M-4M-3M-5M-4M---|--3M-3M-2M-4M-4M-3M-5M-4M--||


----------------------------|----------------------------|
----------------------------|----------------------------|
----------------------------|----------------------------|
--------5--------3--1-------|--------5--------3--1-------|
-----5--------3--------1----|-----5--------3--------1----|
--3--------1----------------|--3--------1----------------|


----------------------------|----------------------------|
----------------------------|----------------------------|
----------------------------|----------------------------|
--------5--------3--1-------|--------5--------3--1-------|
-----5--------3--------1----|-----5--------3--------1----|
--3--------1----------------|--3--------1----------------|


----------------------------|----------------------------|
----------------------------|----------------------------|
----------------------------|----------------------------|
--------5--------3--1-------|--------5--------3--1-------|
-----5--------3--------1----|-----5--------3--------1----|
--3--------1----------------|--3--------1----------------|


----------------------------|----------------------------|
----------------------------|----------------------------|
----------------------------|----------------------------|
--5--------3--------2L------|--2-------------------------|
----------------------------|-----5--------4-------------|
----------------------------|--------------------6-------|


----------------------------|----------------------------|
----------------------------|----------------------------|
----------------------------|----------------------------|
--------7--------5--3-------|--------7--------5--3-------|
-----7--------5--------3----|-----7--------5--------3----|
--5--------3----------------|--5--------3----------------|


----------------------------|----------------------------||
----------------------------|----------------------------||
----------------------------|----------------------------||
--7--------5--------4L------|--4-------------------------||
----------------------------|-----7--------6-------------||
----------------------------|--------------------8-------||


---------------------------|----------------------------|-------|------||
---------------------------|----------------------------|-------|------||
o--------------------------|----------------------------|-------|-----o||
o--------------------------|----------------------------|-------|-----o||
-9M-9M-9M-9M-9M-9M-9M-9M---|--9M-9M-9M-9M-9M-9M-9M-9M---|--10---|--10--||
-7M-7M-7M-7M-7M-7M-7M-7M---|--7M-7M-7M-7M-7M-7M-7M-7M---|--8----|--8---||


----------------------------|----------------------------|-------|
----------------------------|----------------------------|-------|
----------------------------|----------------------------|-------|
----------------------------|----------------------------|-------|
--7--7--7--7--7--7--7--7----|--7--7--7--7--7--7--7--7----|--10L--|
----------------------------|----------------------------|--8L---|


----------------|-------|----------------|-------|-------|----------------|
----------------|-------|----------------|-------|-------|----------------|
----------------|-------|----------------|-------|-------|----------------|
--------5--4----|--2L---|--2-------------|-------|-------|----------------|
--10----7--5----|--3L---|--3-----7--5----|--3L---|--3----|----------------|
--8-------------|-------|--------8--7----|--5L---|--5----|--7M-7M-7M-7M---|


----------------|----------------|----------------|----------------|
----------------|----------------|----------------|----------------|
----------------|----------------|----------------|----------------|
----------------|----------------|----------------|----------------|
----------------|----------------|----------------|----------------|
--7M-7M-7M-7M---|--7M-7M-7M-7M---|--8M-8M-8M-8M---|--8M-8M-8M-8M---|


----------------|----------------|----------------|----------------|
----------------|----------------|----------------|----------------|
----------------|----------------|----------------|----------------|
----------------|----------------|----------------|----------------|
----------------|----------------|----------------|----------------|
--8M-8M-8M-8M---|--7M-7M-7M-7M---|--7M-7M-7M-7M---|--7M-7M-7M-7M---|


----------------|----------------|----------------|----------|----------|
----------------|----------------|----------------|----------|----------|
----------------|----------------|----------------|----------|-----5----|
----------------|----------------|----------------|--4-------|--5-------|
----------------|----------------|----------------|----------|----------|
--8M-8M-8M-8M---|--8M-8M-8M-8M---|--8M-8M-8M-8M---|----------|----------|


----------|----------|----------|----------------------------|
----------|----------|----------|----------------------------|
-----3----|----------|----------|----------------------------|
--3-------|--1-------|--3-------|----------------------------|
----------|----------|-----4----|--5--5--5--5--5--5--5--5----|
----------|----------|----------|----------------------------|


----------------------------|----------------------------|
----------------------------|----------------------------|
----------------------------|----------------------------|
----------------------------|--------5--------3--1-------|
--5--5--5--5--5--5--5--5----|-----5--------3--------1----|
----------------------------|--3--------1----------------|


----------------------------|----------------------------|
----------------------------|----------------------------|
----------------------------|----------------------------|
--------5--------3--1-------|--------5--------3--1-------|
-----5--------3--------1----|-----5--------3--------1----|
--3--------1----------------|--3--------1----------------|


----------------------------|----------------------------|
----------------------------|----------------------------|
----------------------------|----------------------------|
--------5--------3--1-------|--5--------3--------2L------|
-----5--------3--------1----|----------------------------|
--3--------1----------------|----------------------------|


----------------------------|----------------------------|
----------------------------|----------------------------|
----------------------------|----------------------------|
--2-------------------------|--------7--------5--3-------|
-----5--------4-------------|-----7--------5--------3----|
--------------------6-------|--5--------3----------------|


----------------------------|----------------------------|
----------------------------|----------------------------|
----------------------------|----------------------------|
--------7--------5--3-------|--7--------5--------4L------|
-----7--------5--------3----|----------------------------|
--5--------3----------------|----------------------------|


----------------------------||---------------------------|
----------------------------||---------------------------|
----------------------------||o--------------------------|
--4-------------------------||o--------------------------|
-----7--------6-------------||-9M-9M-9M-9M-9M-9M-9M-9M---|
--------------------8-------||-7M-7M-7M-7M-7M-7M-7M-7M---|


----------------------------|-------|------||----------------------------|
----------------------------|-------|------||----------------------------|
----------------------------|-------|-----o||----------------------------|
----------------------------|-------|-----o||----------------------------|
--9M-9M-9M-9M-9M-9M-9M-9M---|--10---|--10--||--7--7--7--7--7--7--7--7----|
--7M-7M-7M-7M-7M-7M-7M-7M---|--8----|--8---||----------------------------|


----------------------------|-------|----------------|-------|----------------|
----------------------------|-------|----------------|-------|----------------|
----------------------------|-------|----------------|-------|----------------|
----------------------------|-------|--------5--4----|--2L---|--2-------------|
--7--7--7--7--7--7--7--7----|--10L--|--10----7--5----|--3L---|--3-----7--5----|
----------------------------|--8L---|--8-------------|-------|--------8--7----|


-------|-------|----------------|----------------|----------------|
-------|-------|----------------|----------------|----------------|
-------|-------|----------------|----------------|----------------|
-------|-------|----------------|----------------|----------------|
--3L---|--3----|----------------|----------------|----------------|
--5L---|--5----|--7M-7M-7M-7M---|--7M-7M-7M-7M---|--7M-7M-7M-7M---|


----------------|----------------|----------------|----------------|
----------------|----------------|----------------|----------------|
----------------|----------------|----------------|----------------|
----------------|----------------|----------------|----------------|
----------------|----------------|----------------|----------------|
--8M-8M-8M-8M---|--8M-8M-8M-8M---|--8M-8M-8M-8M---|--7M-7M-7M-7M---|


----------------|----------------|----------------|----------------|
----------------|----------------|----------------|----------------|
----------------|----------------|----------------|----------------|
----------------|----------------|----------------|----------------|
----------------|----------------|----------------|----------------|
--7M-7M-7M-7M---|--7M-7M-7M-7M---|--8M-8M-8M-8M---|--8M-8M-8M-8M---|


----------------|----------|----------|----------|----------|----------|
----------------|----------|----------|----------|----------|----------|
----------------|----------|-----5----|-----3----|----------|----------|
----------------|--4-------|--5-------|--3-------|--1-------|--3-------|
----------------|----------|----------|----------|----------|-----4----|
--8M-8M-8M-8M---|----------|----------|----------|----------|----------|


----------------------------|----------------------------|
----------------------------|----------------------------|
----------------------------|----------------------------|
----------------------------|----------------------------|
--5--5--5--5--5--5--5--5----|--5--5--5--5--5--5--5--5----|
----------------------------|----------------------------|


----------------------------|----------------------------|----||
----------------------------|----------------------------|----||
----------------------------|----------------------------|----||
--------5--------3--1-------|--------5--------3--1-------|----||
-----5--------3--------1----|-----5--------3--------1----|----||
--3--------1----------------|--3--------1----------------|----||
Login or Register to remove this ad.