Dancing Doll Calcobrena (Final Fantasy IV) Guitar Tab

Submitted: Jun 02, 2014 by The Ripper

5
Average: 5 (4 votes)
Download | Listen
Game: Final Fantasy IV
Composer(s): Nobuo Uematsu
Style: Arrangement, Fingerstyle
Series: Final Fantasy

AutoScroll: Slow | Medium | Fast
                                         Dancing Doll Calcobrena
                                           Final Fantasy IV 
                                       Composed  by Nobuo Uematsu
                                Tabbed by the Ripper  June 1st 2014



     Q    Q    Q       Q    Q    Q       E  E  E  E  E  E   
E||-----------------|-----------------|--------------------|
B||-------1----1----|-------1----1----|--4--3--4--3--4--3--|
G||-------2----2----|--2----2----0----|--------2--L--2--L--|
D||-------2----2----|-------2---------|--3--L--------------|
A||--0--------------|-----------------|--------------------|
E||-----------------|-----------------|--------------------|


   E  E  E  E  E  E     Q    Q    Q       Q    Q    Q       E  E  E  E  E  E   
|--------------------|-----------------|-----------------|--1--0--1--0--1--0--|
|--4--3--1-----1--3--|-------1----1----|-------1----1----|--------1-----1-----|
|-----------2--------|-------2----2----|--2----2----0----|--------2-----2-----|
|--------------------|-------2----2----|-------2---------|--3-----------------|
|--------0-----0-----|--0--------------|-----------------|--------------------|
|--1-----------3--L--|-----------------|-----------------|--------------------|


   E  E  E  E  E  E        Q    E  E  E  E     E  E  E  E  E  E   
|--1--0--1--0--1--3--||---10----9--8--7--6--|--5--4--3--2--1--0--|
|--------1-----1-----||---------------------|--------------------|
|--------2-----2-----||*--------------------|--------2-----2-----|
|--------------------||*--------------------|--------2-----2-----|
|--3-----------------||----0----7-----7-----|--0-----------------|
|--------------------||---------------------|--------------------|


   E  E  E  E  E  E     Q    Q    Q       Q    Q    E  E     Q    Q    Q     
|-----0--1--0--3--2--|--1----0----L----|-------0----L--3--|--1----0---------|
|--4-----1-----1-----|-----------------|--4----1----1--L--|-------1----1----|
|--------2-----2-----|-----------------|-------2----2--L--|--2----2----2----|
|--3-----------------|-------1----1----|-------2----2--L--|-------2----2----|
|--------------------|-------0----0----|--0---------------|-----------------|
|--------------------|--1--------------|------------------|-----------------|


  E  E  E  E  E   E      Q     Q     Q                
--------5-----8------|--12-----------L-----||
--3--4-----------10--|---------------------||
-----------8---------|--------------------*||
--3-----7--L--7---L--|--------------------*||
---------------------|--------12----12-----||
---------------------|--13-----------------||


                        Legend
	             ---------------
			W - whole
			H - half
			Q - quarter
			E - 8th
			S - 16th
			T - 32nd
			X - 64th
			. - note dotted
			|-n-|  - n-tuplets
			L - tied note

Login or Register to remove this ad.

2 comments on Dancing Doll Calcobrena

This is a really good go at a

5

This is a really good go at a solo arrangement, where everyone is doing duets!

I don't know how doable it is at faster speeds but reading it slowly is fun.

EPIC

5

EPIC