Castle Damcyan (Final Fantasy IV) Guitar Tab

Submitted: Feb 28, 2010 by auriplane

5
Average: 5 (3 votes)
Download | Listen
Game: Final Fantasy IV
Composer(s): Nobuo Uematsu
Style: 2 or more instruments, Alternate picking, Transcription
Series: Final Fantasy

AutoScroll: Slow | Medium | Fast
                    Final Fantasy IV - Castle Damcyan GUITAR TAB
                             Composed by Nobuo Uematsu

                       Tabbed by Auriplane ([email protected])




There are five guitar parts here, and one bass part.  For the bass part, please
see my separate bass tab, posted previously.  All guitars are in standard tuning.




                                        Melody

      Q    E   E   Q     Q        W                   Q    E   E   Q     Q
e||---------------------10----|--------------------|--------------------10----|
B||--------8--10--11----------|--------------------|-------8--10--11----------|
G||*--------------------------|--11----------------|--------------------------|
D||*--------------------------|--------------------|--------------------------|
A||---------------------------|--------------------|--------------------------|
E||---------------------------|--------------------|--------------------------|


   Q     E   E   H              E   E   Q     Q     Q        E   E   Q     Q     Q
--13----11--10-------------||--10--11--10-----L----------|------10--------------------|
----------------13---------||----------------------11----|--13------13-----L----10----|
--------------------------*||----------------------------|----------------------------|
--------------------------*||----------------------------|----------------------------|
---------------------------||----------------------------|----------------------------|
---------------------------||----------------------------|----------------------------|


   Q.      E   Q.      S  S     Q     Q     H
----------------------------|------------------------||
--11------10----------------|--13----11----10--------||
--------------12------11-12-|------------------------||
----------------------------|------------------------||
----------------------------|------------------------||
----------------------------|------------------------||





                                 Harmony (Harp - Upper)

      E  E  E  E  E  E  E  E     E  E  E  E  E  E  E  E     E  E  E  E  E  E  E  E
e||---------3-----------3-----|--------2-----------2-----|--------3-----------3-----|
B||------3-----3-----3-----3--|-----4-----4-----4-----4--|-----3-----3-----3-----3--|
G||*--3-----------3-----------|--3-----------3-----------|--3-----------3-----------|
D||*--------------------------|--------------------------|--------------------------|
A||---------------------------|--------------------------|--------------------------|
E||---------------------------|--------------------------|--------------------------|


  E  E  E  E  E  E  E  E       E  E  E  E  E  E  E  E     E  E  E  E  E  E  E  E
--------2-----------2------||--------1-----------1-----|--------2-----------2-----|
-----4-----4-----4-----4---||-----3-----3-----3-----3--|-----3-----3-----3-----3--|
--3-----------3-----------*||--3-----------3-----------|--2-----------2-----------|
--------------------------*||--------------------------|--------------------------|
---------------------------||--------------------------|--------------------------|
---------------------------||--------------------------|--------------------------|


  E  E  E  E  E  E  E  E     E  E  E  E   E   E   E   E
--------3-----------3-----|----------------------11--14--||
-----5-----5-----5-----5--|-----------8--10--13----------||
--3-----------3-----------|-----5--8---------------------||
--------------------------|--5---------------------------||
--------------------------|------------------------------||
--------------------------|------------------------------||





                                 Harmony (Harp - Lower)

      E  E  E  E  E  E  E  E     E  E  E  E  E  E  E  E     E  E  E  E  E  E  E  E
e||---------------------------|--------------------------|--------------------------|
B||---------------------------|--------------------------|--------------------------|
G||*--------3-----------3-----|--------3-----------3-----|--------3-----------3-----|
D||*-----5-----5-----5-----5--|-----4-----4-----4-----4--|-----5-----5-----5-----5--|
A||---5-----------5-----------|--6-----------6-----------|--5-----------5-----------|
E||---------------------------|--------------------------|--------------------------|


  E  E  E  E  E  E  E  E       E  E  E  E  E  E  E  E     E  E  E  E  E  E  E  E
---------------------------||--------------------------|--------------------------|
---------------------------||--------------------------|--------------------------|
--------3-----------3-----*||--------3-----------3-----|--------5-----------5-----|
-----4-----4-----4-----4--*||-----3-----3-----3-----3--|-----4-----4-----4-----4--|
--6-----------6------------||--5-----------5-----------|--5-----------5-----------|
---------------------------||--------------------------|--------------------------|


  E  E  E  E  E  E  E  E     E  E  E  E  E  E  E  E
--------------------------|--------------------2--5--||
--------------------------|--------------1--4--------||
--------3-----------3-----|--------0--3--------------||
-----2-----2-----2-----2--|-----1--------------------||
--4-----------4-----------|--3-----------------------||
--------------------------|--------------------------||





                                    Strings - Upper

      W                   W                   W                   W
e||--------------------|-------------------|-------------------|--6-----------------||
B||---8----------------|--7----------------|--8----------------|--------------------||
G||*-------------------|-------------------|-------------------|-------------------*||
D||*-------------------|-------------------|-------------------|-------------------*||
A||--------------------|-------------------|-------------------|--------------------||
E||--------------------|-------------------|-------------------|--------------------||


  H        Q    Q       H        H           H        H           W
----------------6----|--5-----------------|-----------6--------|--8----------------||
-----------6---------|-----------7--------|--8-----------------|-------------------||
--7------------------|--------------------|--------------------|-------------------||
---------------------|--------------------|--------------------|-------------------||
---------------------|--------------------|--------------------|-------------------||
---------------------|--------------------|--------------------|-------------------||





                                    Strings - Lower

      W                   W                   W                   W
e||--------------------|-------------------|-------------------|--2-----------------||
B||---3----------------|--4----------------|--3----------------|--------------------||
G||*-------------------|-------------------|-------------------|-------------------*||
D||*-------------------|-------------------|-------------------|-------------------*||
A||--------------------|-------------------|-------------------|--------------------||
E||--------------------|-------------------|-------------------|--------------------||


  H        Q    Q       W                   H        H           W
---------------------|-------------------|--------------------|-------------------||
----------------3----|-------------------|--2--------5--------|--4----------------||
-----------3---------|--5----------------|--------------------|-------------------||
--3------------------|-------------------|--------------------|-------------------||
---------------------|-------------------|--------------------|-------------------||
---------------------|-------------------|--------------------|-------------------||





Duration Legend
---------------
W - whole
H - half
Q - quarter
E - 8th
S - 16th
. - note dotted
|-n-|  - n-tuplets


Tablature Legend
----------------
L - tied note

Login or Register to remove this ad.

1 comment on Castle Damcyan

Pretty glad nobody was here

5

Pretty glad nobody was here to hear me playing the harmony parts on guitar while singing the melody in the original octave.