Ads

Boss Battle Theme (Final Fantasy IV) Guitar Tab

Submitted: May 27, 2017 by ILovePaper (Last updated: Jun 26, 2017)

4.5
Average: 4.5 (2 votes)
Download | Listen
Game: Final Fantasy IV
Composer(s): Nobuo Uematsu
Style: Arrangement, Fingerstyle
Series: Final Fantasy

AutoScroll: Slow | Medium | Fast
Boss Battle
Tabbed by ILovePaper

Drop D Tuning

     Q    Q    E  E  E  E       E  E  E  E  E  E  E  E   
E||------------------------||------5-----4-----------L--|
B||------------------------||---------------------------|
G||------------------0--2--||*--L-----------------------|
D||---------------3--------||*--0-----0-----0-----0-----|
A||------------------------||------4--------------------|
D||------------------------||------------3-----2-----0--|


  E  E  E  E  E  E  E  E     E  E  E  E  E  E  E  E   
-----0--1--3-----1--0--1--|--------------------------|
--------------------------|--3--------------------3--|
--------------------------|--------------------------|
--0-----0-----0-----0-----|--0-----0-----0-----0-----|
-----4--------------------|-----4--------------------|
-----------3-----2-----0--|-----------3-----2-----0--|


  E  E  E  E  E  E  E  E     E  E  E  E  E  E  E  E   
-----0-----1-----8-----7--|--L--------------------0--|
--L--------------------5--|--L-----------------------|
--------------------------|-----------------------4--|
--0-----0-----0-----0-----|--0-----0-----0-----0-----|
-----4--------------------|-----4--------------------|
-----------3-----2-----0--|-----------3-----2-----0--|


  E  E  E  E  E  E  E  E     E  E  E  E  E  E  E  E   
--L-----------------------|--------------------------|
-----------------------4--|--L--------------------3--|
--L--------------------2--|--L--------------------1--|
--0-----0-----0-----0-----|--0-----0-----0-----0-----|
-----4--------------------|-----4--------------------|
-----------3-----2-----0--|-----------3-----2-----0--|


  E  E  E  E  E  E  E  E     E  E  E  E  E  E  E  E   
--------------4--5--1--0--|--------------------------|
--L-----------------------|--3-----------------------|
--L-----------------------|--------------------------|
--0-----0-----0-----0-----|--0-----0-----0-----0-----|
-----4--------------------|-----4--------------------|
-----------3-----2-----0--|-----------3-----2-----0--|


  E  E  E  E  E  E  E  E     E  E  E  Q    E  E  E   
--------------------------|-------------------------|
--------------------------|----------------------6--|
-----------------------7--|--L--------9----------5--|
--0-----0-----0-----0--7--|--L-----0--9----0--2--3--|
-----4-----------------5--|--L--4-----7-------------|
-----------3-----2--------|-------------------------|


  E  E  E  Q    E  E  E       E  E  E  Q    E  E  E   
--------------------------||-------------------------|
--L--------8--------------||----------------------6--|
--L--------7-------0--2--*||--7--------9----------5--|
--L--2--3--5----3--L--L--*||--7-----0--9----0--2--3--|
--------------------------||--5--4-----7-------------|
--------------------------||-------------------------|


  E  E  E  Q.     S S S S    E  E  Q    E  E  Q        E  E  E  E  E  E  Q     
----------------------0-1-|--3-----6----5-----6----|--10--6--5--6--5-----3----|
--L--------8------2-3-----|------------------------|--------------------------|
--L--------7--------------|------------------------|--------------------------|
--L--2--3--5--------------|------------------------|--------------------------|
--------------------------|------------------------|--------------------------|
--------------------------|--1--1-------1--1-------|---0--0--------0--0-------|


  E  E  E  Q    E  E  E     Q.     E  E  E  E  E     Q     E  Q    E  E  E   
-------------------------|------------6-----------|--6----10----------------|
----------------------6--|--8------9-----9--8--9--|-------------------------|
--5--7--8----------8-----|------------------------|-------------------------|
----------------6--------|---------------6--------|----------------6--------|
-----------6----------6--|---------6-----------6--|-----------6----------6--|
--6----------------6-----|--6---------------6-----|--6----------------6-----|


  Q    E  Q    E  E  E     Q    E  Q    E  E  E     Q    E  Q    E  E  E   
-------6----------------|------------------------|------------------------|
--8---------------------|-------8----------------|------------------------|
------------------------|--7---------------------|-------7----------------|
---------------6--------|---------------6--------|--8------------6--------|
----------6----------6--|----------6----------6--|----------6----------6--|
--6---------------6-----|--6---------------6-----|--6---------------6-----|


  Q    Q    Q    Q       E  E  E  E  Q    Q       Q    Q    Q    Q     
----------------------|------------------------|----------------------|
----------------------|--4---------------------|----------------------|
-------5---------5----|-----5--3--5--3---------|-------1----0----1----|
--6---------8---------|-------------------6----|--3-------------------|
----------------------|------------------------|----------------------|
--6----6----6----6----|--6-----6-----6----5----|--3----3----3----3----|


  E  E  E  E  Q    Q       E  E  Q    Q    Q       Q    Q    Q    Q     
------------------------|-----------------------|----------------------|
--1---------------------|-----------------------|----------------------|
-----1--0--1--0---------|--1--3--4--------------|-----------------4----|
-------------------3----|-----------------------|----------------------|
------------------------|-----------------------|----------------------|
--3-----3-----3----3----|--2-----2----2----2----|--2----2----2----2----|


  Q    Q    Q    Q       Q    Q    Q    Q       Q    Q    Q    Q     
----------------------|----------------------|--0----1--------------|
--2----3--------------|-----------------3----|----------------------|
----------------------|----------------------|----------------------|
----------------------|----------------------|----------------------|
----------------------|----------------------|--0----1----1----1----|
--4----5----5----5----|--5----5----5----5----|----------------------|


  Q    Q    Q    Q       S S S S S S S S Q    Q        W                 
----------------------|--------------0-1-5----5----|--10----------------|
----------------------|----------1-3-----5----5----|---6----------------|
----------------------|----0-2-3-------------------|--------------------|
----------------------|--3---------------0----0----|---7----------------|
--1----1----1----1----|----------------------------|--------------------|
----------------------|----------------------------|--------------------|




Alternate Version by Bessem

Drop C Tuning

     Q    Q    E  E  E  E       E  E  E  E  E  E  E  E   
D||------------------------||------5-----4-----------L--|
A||------------------------||---------------------------|
F||------------------0--2--||*--L-----------------------|
C||---------------3--------||*--0-----0-----0-----0-----|
G||------------------------||------4--------------------|
C||---------------------0--||------------3-----2-----0--|


  E  E  E  E  E  E  E  E     E  E  E  E  E  E  E  E   
-----------3-----1--0--1--|--------------------------|
-----5--6-----------------|--3--------------------3--|
--------------------------|--------------------------|
--0-----0-----0-----0-----|--0-----0-----0-----0-----|
-----4--------------------|-----4--------------------|
-----------3-----2-----0--|-----------3-----2-----0--|


  E  E  E  E  E  E  E  E     E  E  E  E  E  E  E  E   
-----0-----1-----8-----7--|--L--------------------6--|
--L--------------------5--|--L--------------------5--|
--------------------------|-----------------------4--|
--0-----0-----0-----0-----|--0-----0-----0-----0-----|
-----4--------------------|-----4--------------------|
-----------3-----2-----0--|-----------3-----2-----0--|


  E  E  E  E  E  E  E  E     E  E  E  E  E  E  E  E   
--L--------------------5--|--L--------------------4--|
--L--------------------4--|--L--------------------3--|
--L--------------------2--|--L--------------------1--|
--0-----0-----0-----0-----|--0-----0-----0-----0-----|
-----4--------------------|-----4--------------------|
-----------3-----2-----0--|-----------3-----2-----0--|


  E  E  E  E  E  E  E  E     E  E  E  E  E  E  E  E   
--L-----------4--5--------|--------------------------|
--L-----------------6--5--|--3-----------------------|
--L-----------------------|--------------------------|
--0-----0-----0-----0-----|--0-----0-----0-----0-----|
-----4--------------------|-----4--------------------|
-----------3-----2-----0--|-----------3-----2-----0--|


  E  E  E  E  E  E  E  E     E  E  E  Q    E  E  E   
--------------------------|-----------0----------1--|
-----------------------3--|--L--------0----------1--|
-----------------------2--|--L----------------------|
--0-----0-----0-----0--0--|--L-----0--2----0--2--3--|
-----4--------------------|-----4-------------------|
-----------3-----2--------|-------------------------|


  E  E  E  Q    E  E  E       E  E  E  Q    E  E  E   
--L--------3--------------||-----------0----------1--|
--L--------3--------------||--3--------0----------1--|
-----------0-------0--2--*||--2----------------------|
--L--2--3-------3--L--L--*||--0-----0--2----0--2--3--|
--------------------------||-----4-------------------|
--------------------------||-------------------------|


  E  E  E  Q.     S S S S    E  E  Q    E  E  Q        E  E  E  E  E  E  Q     
--L--------3----------0-1-|--------6----5-----6----|--10--6--5--6--5-----3----|
--L--------3------2-3-----|--8---------------------|--------------------------|
-----------0--------------|------------------------|--------------------------|
--L--2--3-----------------|------------------------|--------------------------|
--------------------------|--6--6-------6--6-------|---6--6-------------------|
--------------------------|------------------------|---------------1--1-------|


  E  E  E  Q    E  E  E     Q.     E  E  E  E  E     Q     E  Q    E  E  E   
----------------------1--|--3------4--6--4--3--4--|--6----10----------------|
-----3--4----------4-----|------------------------|-------------------------|
--5----------------------|------------------------|-------------------------|
----------------6--------|---------------6--------|----------------5--------|
-----------6-------4--6--|---------6--------4--6--|-----------5-------3--5--|
--6----------------------|--6---------------------|--5----------------------|


  Q    E  Q    E  E  E     Q    E  Q    E  E  E     Q    E  Q    E  E  E   
-------6----------------|------------------------|------------------------|
--8---------------------|-------8----------------|-------3----------------|
------------------------|--7---------------------|--3---------------------|
---------------5--------|---------------5--------|---------------5--------|
----------5-------3--5--|----------5-------3--5--|----------5-------3--5--|
--5---------------------|--5---------------------|--5---------------------|


  Q    Q    Q    Q       E  E  E  E  Q    Q       Q    Q    Q    Q     
----------------------|------------------------|----------------------|
----------------------|--4---------------------|----------------------|
-------5----3----5----|-----5--3--5--3----1----|-------1----0----1----|
--6-------------------|------------------------|--3-------------------|
----------------------|------------------------|----------------------|
--6----6----6----6----|--6-----6-----6----6----|--3----3----3----3----|


  E  E  E  E  Q    Q       E  E  Q    Q    Q       Q    Q    Q    Q     
------------------------|-----------------------|----------------------|
--1---------------------|--------0--------------|-----------------0----|
-----1--0--1--0---------|--1--3-----------------|----------------------|
-------------------3----|-----------------------|----------------------|
------------------------|-----------------------|----------------------|
--3-----3-----3----3----|--2-----2----2----2----|--2----2----2----2----|


  Q    Q    Q    Q       Q    Q    Q    Q       Q    Q    Q    Q     
----------------------|----------------------|--0----1--------------|
--2----3--------------|-----------------3----|----------------------|
----------------------|----------------------|----------------------|
----------------------|----------------------|----------------------|
----------------------|----------------------|--0----1----1----1----|
--4----5----5----5----|--5----5----5----5----|----------------------|


  Q    Q    Q    Q       S S S S S S S S Q    Q        W                 
----------------------|--------------0-1-5----5----|--10----------------|
----------------------|----------1-3-----8----8----|--------------------|
----------------------|----0-2-3-------------------|--10----------------|
----------------------|--3---------------0----0----|---7----------------|
--1----1----1----1----|----------------------------|--------------------|
----------------------|----------------------------|--------------------|


-------||
-------||
-------||
-------||
-------||
-------||
Login or Register to remove this ad.

2 comments on Boss Battle Theme

It says standard tuning, but

It says standard tuning, but it's dropped D

Thanks, changed it

Thanks, changed it