This is the Last Battle (Final Fantasy III) Bass/Guitar Tab

Submitted: Mar 06, 2010 by Jacob31593 (Last updated: Apr 05, 2010)

5
Average: 5 (1 vote)
Download | Listen
Game: Final Fantasy III
Composer(s): Nobuo Uematsu
Style: 2 or more instruments, Alternate picking, Arrangement, Transcription
Series: Final Fantasy

AutoScroll: Slow | Medium | Fast

This is the Last Battle from Final Fantasy III
Composed by Nobuo Uematsu
Tabbed by Jacob31593
Mar 6th 2010

105 bpm and 3/4 time until you get to the triplets
after that its 120 bpm and 4/4 time
bpm becomes 165 after the triplets
Advice!
if you cant play the part like this:

     S S S  S S S  S S  S  S  S  S  S  S  S  S  
|----------------------------------------------|
|---10-----10-----10---13-------13-------13----|
|*-----9------9------9----12-------12-------12-|
|*-------7------7------------10-------10-------|
|----------------------------------------------|
|----------------------------------------------|

try playing it like this!
pretty much the same thing :)

     S  S  S  S  S  S  S  S  S  S  S  S  S  S  S  S  
|---------------------------------------------------|
|---10-10-10-10-10-10-10-10-13-13-13-13-13-13-13-13-|
|*---9--9--9--9--9--9--9--9-12-12-12-12-12-12-12-12-|
|*---7--7--7--7--7--7--7--7-10-10-10-10-10-10-10-10-|
|---------------------------------------------------|
|---------------------------------------------------|

the gpro file includes the bass tab!

Guitar 1

      E   E   E   E   E   E      E   E   E  E   E   E      E   E   E   E   E   E      E   E   E  E   E   E   
E||--------------------------|-------------------------|--------------------------|-------------------------|
B||--13--14--16--------------|-------------------------|--13--14--16--------------|-------------------------|
G||--------------11--12--14--|-------------------------|--------------11--12--14--|-------------------------|
D||--------------------------|--10--11--13-------------|--------------------------|--10--11--13-------------|
A||--------------------------|--------------9--10--12--|--------------------------|--------------9--10--12--|
E||--------------------------|-------------------------|--------------------------|-------------------------|


   E  E  E   E   E  E     E   E   E  E   E   E      E  E  E   E   E  E     E   E   E  E   E   E   
-----------------------|------------------------|-----------------------|------------------------|
-----------------------|------------------------|-----------------------|------------------------|
-----------------------|----------------10------|-----------------------|----------------10------|
-----------------------|--9------12--9------12--|-----------------------|--9------12--9------12--|
---------8------11--8--|-----11-----------------|---------8------11--8--|-----11-----------------|
--10--7-----10---------|------------------------|--10--7-----10---------|------------------------|


   E   E   E   E   E   E      E   E   E  E   E   E      E   E   E   E   E   E      E   E   E  E   E   E   
--------------------------|-------------------------|--------------------------|-------------------------|
--13--14--16--------------|-------------------------|--13--14--16--------------|-------------------------|
--------------11--12--14--|-------------------------|--------------11--12--14--|-------------------------|
--------------------------|--10--11--13-------------|--------------------------|--10--11--13-------------|
--------------------------|--------------9--10--12--|--------------------------|--------------9--10--12--|
--------------------------|-------------------------|--------------------------|-------------------------|


   E  E  E   E   E  E     E   E   E  E   E   E      E  E  E   E   E  E     E   E   E  E   E   E   
-----------------------|------------------------|-----------------------|------------------------|
-----------------------|------------------------|-----------------------|------------------------|
-----------------------|----------------10------|-----------------------|----------------10------|
-----------------------|--9------12--9------12--|-----------------------|--9------12--9------12--|
---------8------11--8--|-----11-----------------|---------8------11--8--|-----11-----------------|
--10--7-----10---------|------------------------|--10--7-----10---------|------------------------|


   E   E   E   E   E   E      E   E   E  E   E   E      E   E   E   E   E   E      E   E   E  E   E   E   
--------------------------|-------------------------|--------------------------|-------------------------|
--13--14--16--------------|-------------------------|--13--14--16--------------|-------------------------|
--------------11--12--14--|-------------------------|--------------11--12--14--|-------------------------|
--------------------------|--10--11--13-------------|--------------------------|--10--11--13-------------|
--------------------------|--------------9--10--12--|--------------------------|--------------9--10--12--|
--------------------------|-------------------------|--------------------------|-------------------------|


   |---3---|   |---3---|   |---3---|  |---3---|      |---3---|   |---3---|   |---3---|  |---3---|   
   E   E   E   E   E   E   E   E   E  E   E   E      E   E   E   E   E   E   E   E   E  E   E   E   
-------------------------------------------------|-------------------------------------------------|
--13--14--16-------------------------------------|--13--14--16-------------------------------------|
--------------11--12--14-------------------------|--------------11--12--14-------------------------|
--------------------------10--11--13-------------|--------------------------10--11--13-------------|
--------------------------------------9--10--12--|--------------------------------------9--10--12--|
-------------------------------------------------|-------------------------------------------------|


   |--3--|   |---3--|  |---3---|  |---3---|      |--3--|   |---3--|  |---3---|  |---3---|   
   E  E  E   E   E  E  E   E   E  E   E   E      E  E  E   E   E  E  E   E   E  E   E   E   
---------------------------------------------|---------------------------------------------|
---------------------------------------------|---------------------------------------------|
-------------------------------------10------|-------------------------------------10------|
-----------------------9------12--9------12--|-----------------------9------12--9------12--|
---------8------11--8-----11-----------------|---------8------11--8-----11-----------------|
--10--7-----10-------------------------------|--10--7-----10-------------------------------|


   |---3---|   |---3---|   |---3---|  |---3---|      |---3---|   |---3---|   |---3---|  |---3---|   
   E   E   E   E   E   E   E   E   E  E   E   E      E   E   E   E   E   E   E   E   E  E   E   E   
-------------------------------------------------|-------------------------------------------------|
--13--14--16-------------------------------------|--13--14--16-------------------------------------|
--------------11--12--14-------------------------|--------------11--12--14-------------------------|
--------------------------10--11--13-------------|--------------------------10--11--13-------------|
--------------------------------------9--10--12--|--------------------------------------9--10--12--|
-------------------------------------------------|-------------------------------------------------|


   |--3--|   |---3--|  |---3---|  |---3---|      |--3--|   |---3--|  |---3---|  |---3---|   
   E  E  E   E   E  E  E   E   E  E   E   E      E  E  E   E   E  E  E   E   E  E   E   E   
---------------------------------------------|---------------------------------------------|
---------------------------------------------|---------------------------------------------|
-------------------------------------10------|-------------------------------------10------|
-----------------------9------12--9------12--|-----------------------9------12--9------12--|
---------8------11--8-----11-----------------|---------8------11--8-----11-----------------|
--10--7-----10-------------------------------|--10--7-----10-------------------------------|

LET RING
     S S S  S S S  S S  S  S  S  S  S  S  S  S     S  S S  S  S S  S  S  S  S  S  S  S  S  S  S  
|----------------------------------------------|------------------------------------------------|
|---10-----10-----10---13-------13-------13----|--12------12------12----15-------15-------15----|
|*-----9------9------9----12-------12-------12-|-----11------11------11----14-------14-------14-|
|*-------7------7------------10-------10-------|--------9-------9-------------12-------12-------|
|----------------------------------------------|------------------------------------------------|
|----------------------------------------------|------------------------------------------------|


   S  S  S  S  S  S  S  S  S  S  S  S  S  S  S  S     S  S  S  S  S  S  S  S  S  S  S  S  S  S  S  S  
--------------------------------------------------|--------------------------------------------------|
--13-------13-------13----17-------17-------17----|--15-------15-------15----18-------18-------18----|
-----12-------12-------12----16-------16-------16-|-----14-------14-------14----17-------17-------17-|
--------10-------10-------------14-------14-------|--------12-------12-------------15-------15-------|
--------------------------------------------------|--------------------------------------------------|
--------------------------------------------------|--------------------------------------------------|


   S S S  S S S  S S  S  S  S  S  S  S  S  S     S  S S  S  S S  S  S  S  S  S  S  S  S  S  S  
---------------------------------------------|------------------------------------------------|
--10-----10-----10---13-------13-------13----|--12------12------12----15-------15-------15----|
-----9------9------9----12-------12-------12-|-----11------11------11----14-------14-------14-|
-------7------7------------10-------10-------|--------9-------9-------------12-------12-------|
---------------------------------------------|------------------------------------------------|
---------------------------------------------|------------------------------------------------|


   S  S  S  S  S  S  S  S  S  S  S  S  S  S  S  S     S  S  S  S  S  S  S  S  S  S  S  S  S  S  S  S  
--------------------------------------------------|--------------17-------17-16-------16-19-------19-|
--13-------13-17-------17-15-------15-18-------18-|--16-------16----17----------16----------19-------|
-----12----------16----------14----------17-------|-----15-------------14----------13----------16----|
--------10----------14----------12----------15----|--------13----------------------------------------|
--------------------------------------------------|--------------------------------------------------|
--------------------------------------------------|--------------------------------------------------|
You can stop letting it ring now :O

                              |--3--|                                     
      E   E   E   E   E   E   S  S  S  E         E   E   E   H        E   
-------------------------15--14-15-14-----|--12g13-----------------------|
--12g13----------13--17---------------15--|---------17--15--17--------L--|
---------13--14---------------------------|------------------------------|
------------------------------------------|------------------------------|
------------------------------------------|------------------------------|
------------------------------------------|------------------------------|


                              |--3--|                                     
      E   E   E   E   E   E   S  S  S  E         E   E   E   H        E   
-------------------------15--14-15-14-----|--12g13-----------------------|
--12g13----------13--17---------------15--|---------17--15--17--------L--|
---------13--14---------------------------|------------------------------|
------------------------------------------|------------------------------|
------------------------------------------|------------------------------|
------------------------------------------|------------------------------|


      E   E   E   E      E   Q     E      E   S   T   T  E   H        E   
--16g17----------17--18g20--19----16--|--18--17h-18p-17-16--17--------L--|
---------17--18-----------------------|----------------------------------|
--------------------------------------|----------------------------------|
--------------------------------------|----------------------------------|
--------------------------------------|----------------------------------|
--------------------------------------|----------------------------------|


      E   E   E   E      E   Q     E      E   S   T   T  E   H        E      Q.      Q     E   E   E   
--16g17----------17--18g20--19----16--|--18--17h-18p-17-16--17--------L--|--16------16--------14--16--|
---------17--18-----------------------|----------------------------------|----------------17----------|
--------------------------------------|----------------------------------|----------------------------|
--------------------------------------|----------------------------------|----------------------------|
--------------------------------------|----------------------------------|----------------------------|
--------------------------------------|----------------------------------|----------------------------|


   Q     Q     Q     Q        Q.      Q     E   Q        W                    Q.      Q     E   E   E   
--17----15----------------|--------------------------|--------------------|----------------------------|
--------------18----17----|--15------13----15--13----|--------------------|--15------15--------13--15--|
--------------------------|--------------------------|--16----------------|----------------16----------|
--------------------------|--------------------------|--------------------|----------------------------|
--------------------------|--------------------------|--------------------|----------------------------|
--------------------------|--------------------------|--------------------|----------------------------|


   Q     Q     Q     Q        Q.      Q     E   E   E      Q.      H        E   4x
--------------------------|--13------13--------14--19--|--17------16--------L---||
--17----15----13----17----|----------------16----------|------------------------||
--------------------------|----------------------------|-----------------------*||
--------------------------|----------------------------|-----------------------*||
--------------------------|----------------------------|------------------------||
--------------------------|----------------------------|------------------------||






Duration Legend
---------------
W - whole
H - half
Q - quarter
E - 8th
S - 16th
T - 32nd
X - 64th
. - note dotted
|-n-|  - n-tuplets


Tablature Legend
----------------
L - tied note
g - grace note(slide)


Guitar 2
(rest until the last measure of arpeggios)
  S  S  S S  S  S S  S  S S  S S S  S S  S    S  S  S S  S S  S  S S  S  S S  S S  S  S  
-------------------------------------------|--------------------------------------------|
-------------------------------9------9-12-|--------------------------------------------|
----------9-------9-10----9-10---9-11------|--9--------------------9--------------------|
--9-10-12---10-12------12------------------|----10-12-9-10-9-10-12---10-12-9-10-9-10-12-|
-------------------------------------------|--------------------------------------------|
-------------------------------------------|--------------------------------------------|


  S  S  S S  S S  S  S S  S  S S  S S  S  S    S  S  S S  S S  S  S S  S  S S  S S  S  S  
--------------------------------------------|--------------------------------------------|
--------------------------------------------|--------------------------------------------|
--9--------------------9--------------------|--9--------------------9--------------------|
----10-12-9-10-9-10-12---10-12-9-10-9-10-12-|----10-12-9-10-9-10-12---10-12-9-10-9-10-12-|
--------------------------------------------|--------------------------------------------|
--------------------------------------------|--------------------------------------------|


  S  S  S S  S S  S  S S  S  S S  S S  S  S     S  S  S S  S S  S  S  S  S  S S  S S  S  S  
--------------------------------------------|----------------------------------------------|
--------------------------------------------|--10--------------------10--------------------|
--9--------------------9--------------------|-----10-12-9-10-9-10-12----10-12-9-10-9-10-12-|
----10-12-9-10-9-10-12---10-12-9-10-9-10-12-|----------------------------------------------|
--------------------------------------------|----------------------------------------------|
--------------------------------------------|----------------------------------------------|


   S  S  S S  S S  S  S  S  S  S S  S S  S  S     S  S  S S  S S  S  S  S  S  S S  S S  S  S  
----------------------------------------------|----------------------------------------------|
--10--------------------10--------------------|--10--------------------10--------------------|
-----10-12-9-10-9-10-12----10-12-9-10-9-10-12-|-----10-12-9-10-9-10-12----10-12-9-10-9-10-12-|
----------------------------------------------|----------------------------------------------|
----------------------------------------------|----------------------------------------------|
----------------------------------------------|----------------------------------------------|


   S  S  S S  S S  S  S  S  S  S S  S S  S  S     E  H         E   E   E   
----------------------------------------------|---------------12--10------|
--10--------------------10--------------------|--12-------------------12--|
-----10-12-9-10-9-10-12----10-12-9-10-9-10-12-|---------------------------|
----------------------------------------------|---------------------------|
----------------------------------------------|---------------------------|
----------------------------------------------|---------------------------|


   S  S  E   S  S  E   S  S  E   S  S E      Q.      H        E      Q.     H        E   
--13--------12--------10-----------------|-----------------------|----------------------|
-----13-10-----14-11-----10-----13-------|-----------------------|----------9--------L--|
----------------------------10-----12-9--|--10------11--------L--|--12------------------|
-----------------------------------------|-----------------------|----------------------|
-----------------------------------------|-----------------------|----------------------|
-----------------------------------------|-----------------------|----------------------|


   E   E   E   Q     E   E   E      E   E   E   E   E  E   E   E      E   S  S  E   Q     E   E   E   
--------------------------------|---------------------------------|----------------10------------11--|
--10----------10----10------12--|--13--10--12------10-----10--13--|--10--11-12-13--------13--12------|
------10--12------------10------|--------------12------9----------|----------------------------------|
--------------------------------|---------------------------------|----------------------------------|
--------------------------------|---------------------------------|----------------------------------|
--------------------------------|---------------------------------|----------------------------------|


   E   S  S  E   S  S  E   S  S S  S S  S  4x
--10---------------------------------------||
------13-12-13--12-10-12--10s-9------------||
--------------------------------9s-7------*||
-------------------------------------9s-6-*||
-------------------------------------------||
-------------------------------------------||



Duration Legend
---------------
W - whole
H - half
Q - quarter
E - 8th
S - 16th
T - 32nd
X - 64th
. - note dotted
|-n-|  - n-tuplets


Tablature Legend
----------------
L - tied note
s - legato slide
Login or Register to remove this ad.