Ads

Pavilion of Dorga and Une (Final Fantasy III) Guitar Tab

Submitted: Aug 30, 2014 by JordanVS

5
Average: 5 (4 votes)
Download | Listen
Game: Final Fantasy III
Composer(s): Nobuo Uematsu
Style: Arrangement, Fingerstyle
Series: Final Fantasy

This song is also called Dorga and Unne's Mansion, Let Me Know the Truth

AutoScroll: Slow | Medium | Fast
Let Me Know the Truth                                         
Doga and Unei
Final Fantasy III
Nobuo Uematsu
JordanVS

*Capo on the 5th

-6/8
-Tempo : 56 ~ 70

T : 56
     ^                    ^                    ^                    ^                  
     E  E  E  E  E  E     E  E  E  E  E  E     E  E  E  E  E  E     E  E  E  E  E  E   
E||--------------------|--------------------|--------------------|--------------------|
B||--1--1--1--1--1--1--|--0--0--0--0--0--0--|--3--3--3--3--3--3--|--------------------|
G||--2--2--2--2--2--2--|--0--0--0--0--0--0--|--4--4--4--4--4--4--|--2--2--2--2--2--2--|
D||--2-----------------|--0-----------------|--5-----------------|--3--3--3--3--3--3--|
A||--0-----------------|--2-----------------|--5-----------------|--3-----------------|
E||--------------------|--3-----------------|--3-----------------|--1-----------------|

T : 70

  S S S S S S S S S S S S    S S S S S S S S S S S S    S S S S S S S S S S S S  
--------------------------|------------------------0-|--2-----3-2---------------|
--------------------------|--0-------0-1-3-1-0-1-3---|----3-0-----3-0-----1-0---|
--------------0-------0-2-|----2-0-2-----------------|----------------2-0-----0-|
--2-0---0-2-4---4-2-4-----|--------------------------|--------------------------|
------3-------------------|--3-----------------------|--2-----------------------|
--5-----------------------|--------------------------|--------------------------|


  S S S S S S S S S S S S    S S S S S S S S S S S S    S S S S S S S S S S S S  
--------------------------|--------------------------|------------------------0-|
--------------------------|--------------------------|--0-------0-1-3-1-0-1-3---|
--------0-----------------|--------------0-------0-2-|----2-0-2-----------------|
--4-0-----4-0-------------|--2-0---0-2-4---4-2-4-----|--------------------------|
------2-------2-0---3-2---|------3-------------------|--3-----------------------|
--3---------------3-----3-|--5-----------------------|--------------------------|


                      |--3--|                          |--3--|                          
  S S S S S S S S S S T  T  T S    S S S S S S S S S S T  T  T S    S S S S S S Q.      
--2-----3-2---------------------|--------------------------------|---------------------|
----3-0-----3-0-----1-0h-1p-0---|--------------------------------|---------------------|
----------------2-0-----------0-|--------0-----------------------|--2-0-------0-2------|
--------------------------------|--4-0-----4-0-------------------|------3-2-3----------|
--2-----------------------------|------2-------2-0---3-2h-3p-2---|--------------3------|
--------------------------------|--3---------------3-----------3-|--1------------------|


  S S S S S S E.  S S S    S S S S S S Q.        S S S S S S E.  S S S    S S S S S S E  E  E   
------------------------|---------------------|------------------------|-----------------------|
--------------------0-1-|--3-1-0---0-1-3------|------------------0-1-3-|--1-0-------0-3--------|
------------------2-----|--------2------------|--0-----------0---------|------2-0-2------2--2--|
--2-0-------0-2---------|--0-----------3------|----3-2-0-2-3-------0---|--------------0--------|
------3-2-3---3-----0---|---------------------|--------------2---------|--3--------------0-----|
--1---------------------|---------------------|--3---------------------|--------------------2--|

		*Da Capo
  S S S S S S E  E  E    
--1-0------------------||
------3-1-0-1-3--------||
--------------0-----0--||
-----------------0-----||
-----------------------||
--1-----------3--------||




Duration Legend
---------------
W - whole
H - half
Q - quarter
E - 8th
S - 16th
T - 32nd
X - 64th
. - note dotted
|-n-|  - n-tuplets


Tablature Legend
----------------
L - tied note
h - hammer on
p - pull off
^ - brush up
v - brush down
Login or Register to remove this ad.