Living Forest (Final Fantasy III) Guitar Tab

Submitted: Sep 26, 2014 by JordanVS

5
Average: 5 (1 vote)
Download | Listen
Game: Final Fantasy III
Composer(s): Nobuo Uematsu
Style: Arrangement, Fingerstyle
Series: Final Fantasy

AutoScroll: Slow | Medium | Fast
Living Forest                                             
Final Fantasy III
Nobuo Uematsu
JordanVS 

*Capo on the 7th fret
-6/8
-80



     E  E  E  E  E  E     E  E  E  E  E  E     E  E  E  E  E  E     E  E  E  E  E  E   
E||--------------------|--------------------|--------------------|--------------------|
B||--0-----------------|--0--------2--------|--0--------L--------|--------------------|
G||-----------3--------|-----------------0--|-----------------0--|--------0-----------|
D||--------2--------3--|--------2-----------|--------2--------2--|--2--------------4--|
A||--------------3-----|--------------4-----|--------------1-----|-----4--------3-----|
E||--0--3-----0--------|--0--3-----0--------|--0--3-----0--------|--0--------0--------|


  E  E  E  E  E  E     E  E  E  E  E  E     E  E  E  E  E  E     E  E  E  E  E  E   
--------------------|--------------------|--------------------|--------------------|
--0-----------------|--0--------2--------|--0--------L--------|--------------------|
-----------3--------|-----------------0--|-----------------0--|--------0-----------|
--------2--------3--|--------2-----------|--------2--------2--|--2--------------4--|
--------------3-----|--------------4-----|--------------1-----|-----4--------3-----|
--0--3-----0--------|--0--3-----0--------|--0--3-----0--------|--0--------0--------|


  E  E  E  E  E  E     E  E  E  E  E  E     E  E  E  E  E  E     E  E  E  E  E  E    
--0-----------------|--0--------2--------|--0--------L--------|--------------------||
-----------4--------|--------------------|-----------------1--|--------1-----------||
--------2--------4--|--------2--------5--|--------2--------2--|--2--------------3--||
-----2--------3-----|-----2--------4-----|-----2--------1-----|-----4--------4-----||
--0--------0--------|--0--------0--------|--0--------0--------|--0--------0--------||
--------------------|--------------------|--------------------|--------------------||




Duration Legend
---------------
W - whole
H - half
Q - quarter
E - 8th
S - 16th
T - 32nd
X - 64th
. - note dotted
|-n-|  - n-tuplets


Login or Register to remove this ad.